» » »

5 Minutes To Midnight Tabs (ver.2)

Artists:  A B C D E F G H I J K L M N O P Q R S T U V W X Y Z # 

5 Minutes To Midnight Tabs (ver.2)

Boys Like Girls
Rating:
0/5 (0 votes)

Hard to play? Try these video lessons and learn fast.
                Five minutes to midnight by Boys Like Girls

im sure this is correct enough


Intro/interlude

Gtr1
E|------------------|
B|------------------|
G|-7-7-6-6-7-7------|
D|-------------7-7--|
A|------------------|
e|------------------|

Gtr2

   D               A               Bm              G
E|------------------------------------------------------|
B|------------------------------------------------------|
G|-777777777777777--------------------------------------|
D|-777777777777777-777777777777777-999999999999999-5555-|
A|-555555555555555-777777777777777-999999999999999-5555-|
e|-----------------555555555555555-777777777777777-3333-|

  Bm  A  G
E|----------|
B|----------|
G|----------|
D|-99-77-55-|
A|-99-77-55-|
e|-77-55-33-|

Verse

Gtr1

E|--------------------|
B|-------------10-10--|
G|-7-7-6-6-7-7--------|
D|--------------------|
A|--------------------|
e|--------------------|
* * * * *  *  *  *


Gtr2
E|-----------------------------------------------------------------|
B|-----------------------------------------------------------------|
G|-777777777777777-------------------------------------------------|
D|-777777777777777-777777777777777-999999999999999-555555555555555-|
A|-555555555555555-777777777777777-999999999999999-555555555555555-|
e|-----------------555555555555555-777777777777777-333333333333333-|
   *************** *************** *************** ***************


*
“cos o o....(00:30)

Gtr3 joins in with Gtr1 and Gtr2

E|------------------555555555555555---------------------------------|
B|-7777777777777777-555555555555555-555555555555555-333333333333333-|
G|-7777777777777777-777777777777777-777777777777777-000000000000000-|
D|------------------------------------------------------------------|
A|------------------------------------------------------------------|
e|------------------------------------------------------------------|


Just Before the pre-chorus, Gtr2 plays without palm muting on G

Gtr2

E|------|
B|------|
G|------|
D|-5555-
A|-5555-
e|-3333-


Pre-Chorus

 Gtr1 plays down-strum on the D

   D            A          D
E|-----------------------------------------5----5-|
B|--------------10-10-9-9-------------------------|
G|-7-7-7-7-7-7---9—-9-9-9—-7-7-7-7-7-7--6s7—6s7---|
D|-x-x-x-x-x-x---7—-7-7-7—-x-x-x-x-x-x--x-x-x-x---|
A|-5-5-5-5-5-5-------------5-5-5-5-5-5--4s5—4s5---|
e|------------------------------------------------|

   D                 E
E|----------------------------|
B|----------------------------|
G|-7-7-7-7-7-7—77777-99999999-|
D|-x-x-x-x-x-x—77777-99999999-|
A|-5-5-5-5-5-5—55555-77777777-|
e|-------------------00000000-|

Chorus is same as intro

Gtr2

   D               A               Bm              G
E|------------------------------------------------------|
B|------------------------------------------------------|
G|-777777777777777--------------------------------------|
D|-777777777777777-777777777777777-999999999999999-5555-|
A|-555555555555555-777777777777777-999999999999999-5555-|
e|-----------------555555555555555-777777777777777-3333-|



  Bm  A  G
E|----------|
B|----------|
G|----------|
D|-99-77-55-|
A|-99-77-55-|
e|-77-55-33-|

Interlude

Gtr1
E|------------------|
B|------------------|
G|-7-7-6-6-7-7------|
D|-------------7-7--|
A|------------------|
e|------------------|


Verse (same as verse 1)

Pre-Chorus

Chorus

Bridge

E|----------------------------------------------|
B|-------------------33333333-------------------|
G|-44444444-22222222-22222222-22222222-00000000-|
D|-44444444-22222222-00000000-22222222-00000000-|
A|-22222222-00000000----------00000000----------|
e|-------------------------------------33333333-|


Another Interlude

Gtr1
  Fingerpick       and then strum octaves
E|---------------------------------|
B|---------------------------------|
G|-7-7-7-7-7-7-7----7-7-7-7-7-7-7--|
D|------------------x-x-x-x-x-x-x--|.....etc
A|-5-5-5-5-5-5-5----5-5-5-5-5-5-5--|
e|---------------------------------|

continue interlude in chorus until 2:57

Chorus
            
Hard to play? Try these video lessons and learn fast. | Correct




comments powered by Disqus
↑ Back to top | Tablatures and chords are parodies/interpretations of the original songs. You may use it for private study, scholarship, research or language learning purposes only