» » »

Boys Like Girls, Heroheroine Tabs (ver.3)

Artists:  A B C D E F G H I J K L M N O P Q R S T U V W X Y Z # 

Heroheroine Tabs (ver.3)

Boys Like Girls Tabs
Rating:
0/5 (0 votes)
Heroheroine lessons Tabs too difficult? Try these video lessons and learn fast
                i dont have much of the second guitar, too much harmonizing stuff. =P


intro through verse
e-------0-------0----|
b-1---1---1---1------|
g---4-------4--------|
d--------------------|  over and over
a--------------------|
e--------------------|

bridge; after "BUT NOT THIS TIME"
e--------------------|
b--------------------|
g--------------------|
d-5--7--3------------|
a-5--7--3------------|
e-3--5--1------------| figure out the strumming yourself


second guitar does something like this
e---3---3---3-------|
b-1---1---1---------|
g-------------------|
d-------------------|
a-------------------|
e-------------------|

chorus.
e-------0-------0----|
b-1---1---1---1------|
g---4-------4--------|
d--------------------|  over and over
a--------------------|
e--------------------|


play the verse again but palm mute it this time

Second chorus.
first guitar
e-------0-------0----|
b-1---1---1---1------|
g---4-------4--------|
d--------------------|
a--------------------|
e--------------------|

second guitar. at "HEEEEEROINE"
e---------------|
b---------------|
g---------------|
d-3-3-3-3-3-----|
a-3-3-3-3-3-----|
e-1-1-1-1-1-----| time the strumming

then "DO YOU KNOW..."
second guitar
e-----------------|
b-----------------|
g-5---------------|
d-5--5--3---------|
a-3--5--3---------|
e----3--1---------|   figure the strumming


bridge
e----------12-----|
b-13----13--------|
g----12-----------| over and over
d-----------------|
a-----------------|
e-----------------|

sorry if its a little confusing
enjoy.

aim - CyaNidexLandMine
            
Submit corrections

comments powered by Disqus
↑ Back to top | Boys Like Girls Tabs for Heroheroine. Lyrics for acoustic guitar and electric guitar. Tablatures and chords are parodies/interpretations of the original songs. You may use it for private study, scholarship, research or language learning purposes only