» » »

Boys Like Girls, Heroheroine Tabs (ver.1)

Artists:  A B C D E F G H I J K L M N O P Q R S T U V W X Y Z # 

Heroheroine Tabs (ver.1)

Boys Like Girls Tabs
 Rating:
4/5 (4 votes)
Heroheroine lessons Tabs too difficult? Try these video lessons and learn fast
1
                1st guitar:
intro:
e --------------------------------------|
b --0---5-------------------------------|
g 5---5---------------------------------|
d --------------------------------------|
a --------------------------------------|
E --------------------------------------|
2nd guitar:
intro/verse:
e -8------------------------------------|
b ---8--5--6----------------------------|
g --------------------------------------|
d --------------------------------------|
a --------------------------------------|
E --------------------------------------|
prechorus:
1st guitar:
e --------------------------------------|
b --------------------------------------|
g --------------------------------------|
d 5-5-555-7-77-7777-3-3-333-3-33-3333---|
a 5-5-555-7-77-7777-3-3-333-3-33-3333---|
E 3-3-333-5-55-5555-1-1-111-1-11-1111---|

e --------------------------------------|
b --------------------------------------|
g --------------------------------------|
d 5-5-555-7-77-7777-3~------------------|
a 5-5-555-7-77-7777-3~------------------|
E 3-3-333-5-55-5555-1~------------------|

2nd guitar:
e --------------------------------------|
b -8------8------8-----8-----8--8-------|
g ---7-7----7-7----7-7---7-7--7---------|     play this 3x
d --------------------------------------| 
a --------------------------------------|
E --------------------------------------|


1st chorus:

e --------------------------------------|
b --0----5------------------------------|
g 5---5---------------------------------|
d --------------------------------------|
a --------------------------------------|
E --------------------------------------|

2nd verse
(1st half of verse)
1st guitar:
e --------------------------------------|
b --0----5------------------------------|
g 5---5---------------------------------|
d --------------------------------------|
a --------------------------------------|
E --------------------------------------|
2nd guitar:
e -8------------------------------------|
b ---8--5--6----------------------------|
g --------------------------------------|
d --------------------------------------|
a --------------------------------------|
E --------------------------------------|

(2nd half)
2nd guitar:
e --------------------------------------|
b --0----5------------------------------|
g 5---5---------------------------------|
d --------------------------------------| repeat 8x
a --------------------------------------|
E --------------------------------------|
  PM PM PM PM

e --------------------------------------|
b --0----8------------------------------|
g 5---5---------------------------------|repeat 8x
d --------------------------------------|
a --------------------------------------|
E --------------------------------------|
 PM PM PM PM


(prechorus)

2nd chorus:
1st guitar
e --------------------------------|
b --0----5----------          <---|for a small bit
b 5---5---------------------------|
d --------------------------------|
a --------------------------------|
E --------------------------------|
both guitar from here 
e ----------------------------------|
b ----------------------------------|
g ----------------------------------|
d 33-33-33-33-3333-33-33-33-33-3333-|
a 33-33-33-33-3333-33-33-33-33-3333-|
E 11-11-11-11-1111-11-11-11-11-1111-|

e -----------------------------------|
b -----------------------------------|
g -5-5-5-5-5-5-5---------------------|
d -5-5-5-5-5-5-5----5-5-5-5-5-5-5----|
a -3-3-3-3-3-3-3----5-5-5-5-5-5-5----|
E ------------------3-3-3-3-3-3-3----|

e -------------------------------------|
b -------------------------------------|
g -------------------------------------|
d 33-33-33-33-3333-33-33-33-33-3333333-|
a 33-33-33-33-3333-33-33-33-33-3333333-|
E 11-11-11-11-1111-11-11-11-11-1111111-|
                               PM PM PM

Bridge:
1st guitar

e ---------------------------------------------|
b ---------------------------------------------|
g --x32--x16---x32-----x16-----x16-----x32-----|
d 7----5----3-------7-------5-------3----------|
a 7----5----3-------7-------5-------3----------|
E 5----3----1-------5-------3-------1----------|

2nd guitar:
e ----------12--------------------------|
b -13-12-13-----------------------------|
g --------------------------------------|
d --------------------------------------|
a --------------------------------------|
E --------------------------------------|

prechorus:
(drums)

chorus:
e -----------------------------------|
b -----------------------------------|
g -5-5-5-5-5-5-5---------------------|
d -5-5-5-5-5-5-5----5-5-5-5-5-5-5----|
a -3-3-3-3-3-3-3----5-5-5-5-5-5-5----|
E ------------------3-3-3-3-3-3-3----|

e -------------------------------------|
b -------------------------------------|
g -------------------------------------|
d 3-3-3-3-3-3-3-3-3-3-3-3-3-3----------|
a 3-3-3-3-3-3-3-3-3-3-3-3-3-3----------|
E 1-1-1-1-1-1-1-1-1-1-1-1-1-1----------|


(end)

whew!
THIS was my VERY 1ST tab.
for me this is 100% accurate.
i'm just 14 yrs. old so please don't flame me if there was some mistakes. ^^


- joel consador
            
Submit corrections

comments powered by Disqus
↑ Back to top | Boys Like Girls Tabs for Heroheroine. Lyrics for acoustic guitar and electric guitar. 1 Tablatures and chords are parodies/interpretations of the original songs. You may use it for private study, scholarship, research or language learning purposes only