» » »

Heels Over Head Bass tabs (ver.3)

Artists:  A B C D E F G H I J K L M N O P Q R S T U V W X Y Z # 

Heels Over Head Bass tabs (ver.3)

Boys Like Girls
Rating:
0/5 (0 votes)

Tabs too difficult? Try these video lessons and learn fast.
                Heels Over Head by Boys Like Girls
(This is my first ever tab, so be gentle.  I just started playing bass a year ago.)

Intro [Guitar Only]

   (0:12) Verse
G|--------------------------------|
D|--------------------------------|
A|--------1(x16)------------------|
D|-1(x16)--------10-8-6~-10-8-6~--|

  (0:24) Pre-Chorus
|---------------------------------|
|---------------------------------|
|-1-1-11-1-1-11-0/10\6------------|
|---------------------------------|

  (0:30) Chorus
|---------------------------------|
|---------------------------------|
|----33---------------33----------|
|-1-------56-66---1--------3/6-6--|

Verse x 2
Pre-Chorus
Chorus x 2

[Break - No bass]

  (2:20) Chorus intro
|---------|
|---------|
|---------|
|--3/6-6--|

  (2:21) Chorus with bass

  (2:35) Chorus Variation
|----------------------------------|
|----------------------------------|
|----------3333333-----------------|
|-111111111-------5555555556666666-|
                                                 Outro
|------------------------------------------------------|
|------------------------------------------------------|
|----------3333333------------------------3333333------|
|-111111111-------44455556666666-111111111-------4-5-6-|
            
Tabs too difficult? Try these video lessons and learn fast.


comments powered by Disqus
↑ Back to top | Tablatures and chords are parodies/interpretations of the original songs. You may use it for private study, scholarship, research or language learning purposes only