» » »

Heart Heart Heartbreak Tabs (ver.1)

Artists:  A B C D E F G H I J K L M N O P Q R S T U V W X Y Z # 

Heart Heart Heartbreak Tabs (ver.1)

Boys Like Girls
Rating:
0/5 (0 votes)

Hard to play? Try these video lessons and learn fast.
                Here's the tab for the brand new Boys Like Girls song, Heart Heart Heartbreak (:

DROP D Tuning

Intro And Verse(You can play 000xxx instead of 006xxx)
|-----|----------------------------------------|
|-----|----------------------------------------|
|-----|----------------------------------------|
|-9-9-|-99-66-55-77----------------------------|
|-9-9-|-99-00-55-77---(x2)---------------------|
|-9-9-|-99-00-55-77----------------------------|


Prechorus (Palm mute 3's)
|----------------------------------------------|
|----------------------------------------------|
|----------------------------------------------|
|-3333333-555----------------------------------|
|-3333333-555----------------------------------|
|-3333333-555----------------------------------|

Chorus
|----------------------------------------------|
|----------------------------------------------|
|----------------------------------------------|
|-0-7-10-5-------------------------------------|
|-0-7-10-5-------------------------------------|
|-0-7-10-5-------------------------------------|

Repeat Verse, Prechorus, and Chorus.

Bridge
|----------------------------------------------|
|----------------------------------------------|
|----------------------------------------------|
|-77-77-99-55----------------------------------|
|-77-77-99-55----------------------------------|
|-77-77-99-55----------------------------------|

Solo (Here's your starting note. Sorry, It's really hard to tab out. Improvise or post 
in the comment please)
|----------------------------------------------|
|-7--------------------------------------------|
|----------------------------------------------|
|----------------------------------------------|
|----------------------------------------------|
|----------------------------------------------|

Intro
Chorus
            
Hard to play? Try these video lessons and learn fast. | Correct




comments powered by Disqus
↑ Back to top | Tablatures and chords are parodies/interpretations of the original songs. You may use it for private study, scholarship, research or language learning purposes only