» » »

Free Tabs (ver.1)

Artists:  A B C D E F G H I J K L M N O P Q R S T U V W X Y Z # 

Free Tabs (ver.1)

Boys Like Girls
Rating:
0/5 (0 votes)

Hard to play? Try these video lessons and learn fast.
                album:heavy heart

tuning: standard
legend:

        ~ - let it ring
        . - palm mute
        x - dead note
        h - hammer on


 ---------
| verse 1 |
 ---------

 guitar 1

e|--33333333--33333333--33333333--33333333--3333333333333--~~~---3-3-3333--|
B|--33333333--33333333--33333333--33333333--3333333333333--~~~---3-3-3333--|
G|--00000000--00000000--00000000--22222222--0000000000000--~~~---2-2-0000--|
D|--00000000--00000000--22222222--00000000--2222222222222--------2-0-0000--|
A|--22222222--xxxxxxxx--22222222------------3333333333333--3-2---0-2-2223--|
E|--33333333--22222222--00000000-------------------------------3---x-3333--|


 ---------
| verse 2 |
 ---------

 guitar 1 only

e|--33333333--33333333--33333333--33333333--3333333333333--~~~---3-3-3333--|
B|--33333333--33333333--33333333--33333333--3333333333333--~~~---3-3-3333--|
G|--00000000--00000000--00000000--22222222--0000000000000--~~~---2-2-0000--|
D|--00000000--00000000--22222222--00000000--2222222222222--------2-0-0000--|
A|--22222222--xxxxxxxx--22222222------------3333333333333--3-2---0-2-2223--|
E|--33333333--22222222--00000000-------------------------------3---x-3333--|

 
 --------------
|  pre-chorus  |
 --------------

 guitar 1

e|--00000000--22222222--00000000--2~~--|
B|--11111111--33333333--11111111--3~~--|
G|--22222222--44444444--00000000--2~~--|
D|--22222222--44444444--22222222--0~~--|
A|--00000000--22222222--33333333-------|
E|-------------------------------------|

 guitar 2

e|-------------------------------------|
B|-------------------------------------|
G|--22222222--44444444--55555555--7~~--|
D|--22222222--44444444--55555555--7~~--|
A|--00000000--22222222--33333333--5~~--|
E|-------------------------------------|


 ----------
|  chorus  |
 ----------

 guitar 1

e|--33333333--33333333--33333333--33333333--|
B|--33333333--33333333--33333333--33333333--|
G|--00000000--00000000--00000000--00000000--|
D|--00000000--00000000--22222222--22222222--|
A|--22222222--22222222--33333333--33333333--|
E|--33333333--33333333----------------------|

 guitar 2

e|------------------------------------------|
B|------------------------------------------|
G|----------------------55555555--55555555--|
D|--55555555--55555555--55555555--55555555--|
A|--55555555--55555555--33333333--33333333--|
E|--33333333--33333333----------------------|


 ---------
| verse 3 |
 ---------

 guitar 1

e|--33333333--33333333--33333333--33333333--3333333333333--~~~---3-3-3333--|
B|--33333333--33333333--33333333--33333333--3333333333333--~~~---3-3-3333--|
G|--00000000--00000000--00000000--22222222--0000000000000--~~~---2-2-0000--|
D|--00000000--00000000--22222222--00000000--2222222222222--------2-0-0000--|
A|--22222222--xxxxxxxx--22222222------------3333333333333--3-2---0-2-2223--|
E|--33333333--22222222--00000000-------------------------------3---x-3333--|

 guitar 2

e|-------------------------------------------------------------------------|
B|-------------------------------------------------------------------------|
G|--------------------------------77777777--55555555555555555555-----------|
D|--55555555--55555555--22222222--77777777--55555555555555555555-7-9-5555--|
A|--55555555--55555555--22222222--55555555--33333333333333333333-7-9-5555--|
E|--33333333--22222222--00000000---------------------------------5-7-3333--|


 ---------
| verse 4 |
 ---------

 guitar 1

e|--33333333--33333333--33333333--33333333--3333333333333--~~~---3-3-3333--|
B|--33333333--33333333--33333333--33333333--3333333333333--~~~---3-3-3333--|
G|--00000000--00000000--00000000--22222222--0000000000000--~~~---2-2-0000--|
D|--00000000--00000000--22222222--00000000--2222222222222--------2-0-0000--|
A|--22222222--xxxxxxxx--22222222------------3333333333333--3-2---0-2-2223--|
E|--33333333--22222222--00000000-------------------------------3---x-3333--|

 guitar 2

e|-------------------------------------------------------------------------|
B|-------------------------------------------------------------------------|
G|--------------------------------77777777--55555555555555555555-----------|
D|--55555555--55555555--22222222--77777777--55555555555555555555-7-9-5555--|
A|--55555555--55555555--22222222--55555555--33333333333333333333-7-9-5555--|
E|--33333333--22222222--00000000---------------------------------5-7-3333--|



repeat pre-chorus
repeat chorus 2x

 -------
|  fill |
 -------

 guitar 1

e|--33333333333--|
B|--33333333333--|
G|--00000000000--|
D|--22222222222--|
A|--33333333333--|
E|---------------|

 guitar 2

e|---------------|
B|---------------|
G|--55555555555--|
D|--55555555555--|
A|--33333333333--|
E|---------------|
    ....... 


 ------------
|   bridge   |
 ------------

 guitar 1

e|--00000000--22222222--00000000--33333333--|
B|--11111111--33333333--11111111--33333333--|
G|--00000000--22222222--00000000--00000000--| (2x)
D|--22222222--00000000--22222222--00000000--| 
A|--33333333------------33333333--22222222--|
E|--------------------------------33333333--|

 guitar 2

e|----------------------------|
B|--10-11-10-13--10-11-10-13--|
G|----------------------------| (repeat until the bridge ends)
D|----------------------------|     then...
A|----------------------------|
E|----------------------------|


e|--------------------------10~--|
B|--11~--11-11h13--11--10~-------|
G|-------------------------------| end the bridge here
D|-------------------------------|
A|-------------------------------|
E|-------------------------------|


repeat chorus (without guitars,only bass and drums)
repeat chorus (with guitars)


 ---------
|  outro  |
 ---------

 guitar 1

e|--00000000--22222222--00000000--33333333--|
B|--11111111--33333333--11111111--33333333--|
G|--00000000--22222222--00000000--00000000--| (2x)
D|--22222222--00000000--22222222--00000000--| 
A|--33333333------------33333333--22222222--|
E|--------------------------------33333333--|

 guitar 2 

e|------------------------------------------|
B|------------------------------------------|
G|--55555555--77777777--55555555------------| (2x)
D|--55555555--77777777--55555555--55555555--|
A|--33333333--55555555--33333333--55555555--|
E|--------------------------------33333333--|

 --------------
|  last chord  |
 --------------

 guitar 1 

e|--3~~~--|
B|--3~~~--|
G|--0~~~--|
D|--2~~~--|
A|--3~~~--|
E|--------|

 guitar 2

e|--------|
B|--------|
G|--5~~~--|
D|--5~~~--|
A|--3~~~--|
E|--------|

____________________________________________________________________________
song structure

verse 1 (carry on...)
verse 2 (...)
pre-chorus (throw away the horoscopes...)
chorus (free...)
verse 3 (...)
verse 4 (...)
pre-chorus (throw away the horoscopes...)
chorus (free...)
bridge (don't worry about a thing...)
chorus (free...)
outro (now,don't worry about a thing...)
____________________________________________________________________________

hey guys,you could trust me here,,.. it's accurate, i tell ya... ^^ try it
minutes ... enjoy ! XD
____________________________________________________________________________

WHEN IT'S TIME :O
LONG LIVE EARTH! XD
            
Hard to play? Try these video lessons and learn fast. | Correct




comments powered by Disqus
↑ Back to top | Tablatures and chords are parodies/interpretations of the original songs. You may use it for private study, scholarship, research or language learning purposes only