» » »

Boys Like Girls, Chemicals Collide Tabs (ver.1)

Artists:  A B C D E F G H I J K L M N O P Q R S T U V W X Y Z # 

Chemicals Collide Tabs (ver.1)

Boys Like Girls Tabs
Rating:
0/5 (0 votes)
Chemicals Collide lessons Tabs too difficult? Try these video lessons and learn fast
                ok this is a random shot but i think it sounds right.
(: go nuts


Intro

(Palm mute)
E-----------------------------------------|
B-----------------------------------------|
G-5----x16--------------------------------|
D-5-----------5------x16----3-----x32-----|
A-3-----------5-------------3-------------|
E-------------3-------------1-------------|

1st Verse

(Palm mute)
E----------------------------------------------------------------------|
B----------------------------------------------------------------------|
G-5----x16-------------------------------------------------------------|
D-5----------5-----x16----3-----x32----2----x8----3-----x8----5----x16-|
A-3----------5------------3------------2----------3-----------5--------|
E------------3------------1------------0----------1-----------3--------|


Chorus

E----------------------------------------------|
B----------------------------------------------|
G-5---x16--------------------------------------|
D-5----------5----x16-------7---x16----3---x16-|
A-3----------5--------------7----------3-------|
E------------3--------------5----------1-------|

E------------------------------------------------|
B------------------------------------------------|
G-5---x16----------------------------------------|
D-5----------5----x16-------7---x16----3---x8--5-|
A-3----------5--------------7----------3-------5-|
E------------3--------------5----------1-------3-|


2nd verse

(Palm mute)
E-----------------------------------------|
B-----------------------------------------|
G-5----x32--------------------------------|
D-5-----------5------x16----3-----x32-----|
A-3-----------5-------------3-------------|
E-------------3-------------1-------------|


E----------------------------------------------------------------------|
B----------------------------------------------------------------------|
G-5----x16-------------------------------------------------------------|
D-5----------5-----x16----3-----x32----2----x8----3-----x8----5----x16-|
A-3----------5------------3------------2----------3-----------5--------|
E------------3------------1------------0----------1-----------3--------|


Chorus

E----------------------------------------------|
B----------------------------------------------|
G-5---x16--------------------------------------|
D-5----------5----x16-------7---x16----3---x16-|
A-3----------5--------------7----------3-------|
E------------3--------------5----------1-------|

E------------------------------------------------|
B------------------------------------------------|
G-5---x16----------------------------------------|
D-5----------5----x16-------7---x16----3---x8--5-|
A-3----------5--------------7----------3-------5-|
E------------3--------------5----------1-------3-|


During solo

E----------------------------------------------------|
B----------------------------------------------------|
G-5---x16--------------------------------------------|
D-5----------5----x16-------7---x16----3---x8--5--x8-|
A-3----------5--------------7----------3-------5-----|
E------------3--------------5----------1-------3-----|

Bridge

E-------------------------------|     X2
B-------------------------------|
G-5---x16-----------------------|
D-5------3--x16----7--x16----5--|
A-3------3---------7---------5--|
E--------1---------5---------3--|

Chorus

E----------------------------------------------|
B----------------------------------------------|
G-5---x16--------------------------------------|
D-5----------5----x16-------7---x16----3---x16-|
A-3----------5--------------7----------3-------|
E------------3--------------5----------1-------|

E------------------------------------------------------|
B------------------------------------------------------|
G-5---x16-------------------------------------------5~-|
D-5----------5----x16-------7---x16----3---x8--5----5~-|
A-3----------5--------------7----------3-------5----3~-|
E------------3--------------5----------1-------3-------|

The End :P
            

comments powered by Disqus
↑ Back to top | Boys Like Girls Tabs for Chemicals Collide. Lyrics for acoustic guitar and electric guitar. Tablatures and chords are parodies/interpretations of the original songs. You may use it for private study, scholarship, research or language learning purposes only