» » »

Boy Sets Fire, With Every Intention Tabs (ver.1)

Artists:  A B C D E F G H I J K L M N O P Q R S T U V W X Y Z # 

With Every Intention Tabs (ver.1)

Boy Sets Fire Tabs
 Rating:
4/5 (4 votes)
With Every Intention lessons Tabs too difficult? Try these video lessons and learn fast
1
                Standart Tuning


Since I didn´t find a tab of this beautiful song I decided to tab it out by myself. I 
it´s somtimes not accurate but it gives you a clue of what the song should sound like. 
are welcome.


Intro (4x)

         D                       D
E|-----2------------|---3p2-----------2h3p2-----|
B|-------3---3------|-------3-------3-------3---|
G|---2-----2----(2x)|-------------0-------------|
D|-0----------------|--2------------------------|
A|------------------|---------------------------|
E|------------------|---------------------------|


           D                    D
E|-----2------------|---0h2p0--*3--3-3-3---3p2------|
B|-------3---3------|----------*3--3-3-3---------3--|
G|---2-----2----(2x)|-------------------------------|*not in the record
D|-0----------------|--2----------------------------|
A|------------------|-------------------------------|
E|------------------|-------------------------------|


bridge

E|-----------------------|
B|--*3----------3--------|
G|---0-(4x)-----2-(16x)--| *let ring
D|--------------0--------|
A|-----------------------|
E|-----------------------|


refrain
                                            D
E|-7--7-7--7-7-7-7h8-8--p7--7-7-7-----|-----2--------|
B|-8--8-8--8-8-8-8-8-8---8--8-8-8-----|-----3--------|
G|---------------------------------3x-|-----2--strum-|
D|------------------------------------|-----0--------|
A|------------------------------------|--------------|
E|------------------------------------|--------------|


chords during refrain

G Em C D (on eguitar use powerchords)


eguitar kick in

    E   C   D
E|--7---3---5---------------------------|
B|--8---3---5---------------------------|
G|--9---5---7---------------------------| 4x
D|--9---5---7---------------------------|
A|--7---3---5---------------------------|
E|--7---3---5---------------------------|


    G   Em  C
E|--3-------3---------------------------|
B|--3-------3---------------------------|
G|--4-------5---------------------------| 4x
D|--5---2---5---------------------------|
A|--5---2---3---------------------------|
E|--3---0---3---------------------------|


solo not figured out


outro

E|-----3------------|------3--------------|-----3------------|------3p2--------3----|
B|---3---3---3------|----3---3----3-------|---3---3---3------|----3----3-------3----|
G|-------------(2x)-|-----------------(2x)|------------------|-----------------0----|
D|-2-------2--------|---------------------|-0-------0--------|--0--------0-----0----|
A|------------------|--3-------3----------|------------------|-----------------2----|
E|------------------|---------------------|------------------|-----------------3----|
            
Submit corrections

comments powered by Disqus
↑ Back to top | Boy Sets Fire Tabs for With Every Intention. Lyrics for acoustic guitar and electric guitar. 1 Tablatures and chords are parodies/interpretations of the original songs. You may use it for private study, scholarship, research or language learning purposes only