» » »

Boy Sets Fire, The Tyranny Of What Everybody Knows Tabs (ver.1)

Artists:  A B C D E F G H I J K L M N O P Q R S T U V W X Y Z # 

The Tyranny Of What Everybody Knows Tabs (ver.1)

Boy Sets Fire Tabs
Rating:
0/5 (0 votes)
The Tyranny Of What Everybody Knows lessons Tabs too difficult? Try these video lessons and learn fast
                
This is probably the hardest tab I have done yet.

Chords:

D5   (x577xx)
D#5  (x688xx)


Intro:  palm muted the first few times, then play it and let the D5 chord ring

E|--------------------------------------------------------------|
B|--------------------------------------------------------------|
G|--8--7-------8-7--------8-7--------8-7------------------------|
D|--8--7-------8-7--------8-7--------8-7------------------------|
A|--6--5-------6-5--------6-5--------6-5------------------------|
E|--------------------------------------------------------------|


Verse:

E|------------------------------------------|-------------------|
B|-------------------------------------8----|-------------------|
G|--7------7-------7-------7-------7h8------|----7h8-7----------|
D|------------------------------------------|-----------7h8-7---|
A|----5-5-----5-5-----5-5-----5-5-----------|-------------------|
E|------------------------------------------|-------------------|
      |--|    |--|    |--|    |--|
       pm      pm      pm      pm

cont.

E|----------------------------------------------|---------------|
B|----------------------------------------------|---------------|
G|----------------------------------------------|--------7h8-8--|
D|------------------------------------------5---|---------------|
A|-5--5-5---5--5-5---5--5-5---5--5-5----5h6-----|--5h6-5--------|
E|----------------------------------------------|---------------|
      |--|     |--|     |--|     |--|
       pm       pm       pm       pm

Chorus:

E|--------------------------------------------------------------|
B|--------------------------------------------------------------|
G|-7-7-7-7-7-7-7-7-7-7-7-7-7-7-7-7-10-10-10-10-10-10-10-10------|
D|-7-7-7-7-7-7-7-7-7-7-7-7-7-7-7-7-10-10-10-10-10-10-10-10------|
A|-5-5-5-5-5-5-5-5-5-5-5-5-5-5-5-5--8--8--8--8--8--8--8--8------|
E|--------------------------------------------------------------|
cont.
E|--------------------------------------------------------------|
B|--------------------------------------------------------------|
G|-------------------------10-10-10-10--8-8-8-8-7-7-7-7-7-7-7-7-|
D|-10-10-10-10-10-10-10-10--8--8--8--8--6-6-6-6-5-5-5-5-5-5-5-5-|
A|-10-10-10-10-10-10-10-10--------------------------------------|
E|--8--8--8--8--8--8--8--8--------------------------------------|

Verse 2:

E|------------------|
B|------------------|
G|--8--7-10--7--8---|
D|--6--5--8--5--6---|
A|------------------|
E|------------------|
cont.
E|---------------------------------------|
B|---------------------------------------|
G|-7--7777777777777777---8--7-10--7--8---|
D|-7--7777777777777777---6--5--8--5--6---|
A|-5--5555555555555555-------------------|
E|---------------------------------------|
      |--------------| 
         palm mute

Bridge:

E|--------------------------------------|
B|--------------------------------------|
G|--7-------7-------8-7----------8-7----|
D|--7-------7---------------------------|
A|--5-------5---------------------------|
E|--------------------------------------|

Ending:

E|----------------------------------------------------------------|
B|----------------------------------------------------------------|
G|--8--7-10--7--8---8--7-10--7-8---8--7-10--7--8---8--7-10--7--8--|
D|--6--5--8--5--6---6--5--8--5-6---8--7-10--7--8---6--5--8--5--6--|
A|---------------------------------6--5--8--5--6------------------|
E|----------------------------------------------------------------|


That should be everything.  It might not be all 100% correct, but I think it
sounds damn good, and I worked really hard on it.  Enough of my whining.  Later.
            

comments powered by Disqus
↑ Back to top | Boy Sets Fire Tabs for The Tyranny Of What Everybody Knows. Lyrics for acoustic guitar and electric guitar. Tablatures and chords are parodies/interpretations of the original songs. You may use it for private study, scholarship, research or language learning purposes only