» » »

Boy Sets Fire, Rookie Tabs (ver.1)

Artists:  A B C D E F G H I J K L M N O P Q R S T U V W X Y Z # 

Rookie Tabs (ver.1)

Boy Sets Fire Tabs
 Rating:
3.6/5 (7 votes)
Rookie lessons Tabs too difficult? Try these video lessons and learn fast
1
                -------------------------------------------------------------------------------
                             ROOKIE - BOYSETSFIRE
-------------------------------------------------------------------------------

Tuning: Drop D; DADGBe

Opening

Hold the D5 chord while the bass runs through the opening notes (D, C, F, G) which is 8 measures.
On the second D5 chord, the second guitar enters.

Gtr. 1
e|---|
B|---|
G|-7-|
D|-7-|
A|-5-|
D|---|x2

e|-----------------|-----------------|-------------------------|-------------------------|
B|-----------------|-----------------|-------------------------|-------------------------|
G|-7-7-7-7-7-7-7-7-|-5-5-5-5-5-5-5-5-|-10-10-10-10-10-10-10-10-|-12-12-12-12-12-12-12-12-|
D|-x-x-x-x-x-x-x-x-|-x-x-x-x-x-x-x-x-|-x--x--x--x--x--x--x--x--|-x--x--x--x--x--x--x--x--|
A|-5-5-5-5-5-5-5-5-|-3-3-3-3-3-3-3-3-|-8--8--8--8--8--8--8--8--|-10-10-10-10-10-10-10-10-|
D|-----------------|-----------------|-------------------------|-------------------------|x3


Gtr. 2
e|----------------------|--------------------|
B|----------------------|--------------------|
G|-10-10-10-9-9-9-12-12-|-12-9-9-9-10-10-9-9-|
D|----------------------|--------------------|
A|----------------------|--------------------|
D|----------------------|--------------------|x16

Both Gtrs
e|---------------|
B|---------------|
G|---------------|
D|---------3\2-3-|
A|-------------3-|
D|-0-0-0-0-----3-|
   x x x x

"I never thought this could be me..."

Gtr. 1
e|----------------|----------------|----------------|-------------------------|-------------------------|
B|----------------|----------------|----------------|-------------------------|-------------------------|
G|---------------*|---------------*|---------------*|-------------------------|-------------------------|
D|-0--0-0--0-0-0-*|-3--3-3--3-3-3-*|-8--8-8--8-8-8-*|-10/12-12-12-12-12-12-12-|-12\10-10-10-10-10-10-10-|
A|-0--0-0--0-0-0--|-3--3-3--3-3-3--|-8--8-8--8-8-8--|-10/12-12-12-12-12-12-12-|-12\10-10-10-10-10-10-10-|
D|-0--0-0--0-0-0--|-3--3-3--3-3-3--|-8--8-8--8-8-8--|-10/12-12-12-12-12-12-12-|-12\10-10-10-10-10-10-10-|x2

Gtr. 2
e|----------------|----------------|----------------|-------------------------|-------------------------|
B|----------------|----------------|----------------|-------------------------|-------------------------|
G|---------------*|---------------*|---------------*|-12/14-14-14-14-14-14-14-|-14\12-12-12-12-12-12-12-|
D|-0--0-0--0-0-0-*|-3--3-3--3-3-3-*|-8--8-8--8-8-8-*|-X--X--X--X--X--X--X--X--|-X--X--X--X--X--X--X--X--|
A|-0--0-0--0-0-0--|-3--3-3--3-3-3--|-8--8-8--8-8-8--|-10/12-12-12-12-12-12-12-|-12\10-10-10-10-10-10-10-|
D|-0--0-0--0-0-0--|-3--3-3--3-3-3--|-8--8-8--8-8-8--|-------------------------|-------------------------|X2


"So little time so many crimes..."

Gtr. 1
e|---------------|---------------|---------------|-------------------------|-------------------------|
B|---------------|---------------|---------------|-------------------------|-------------------------|
G|---------------|---------------|---------------|-------------------------|-------------------------|
D|-0--0-0--0-0-0-|-3--3-3--3-3-3-|-8--8-8--8-8-8-|-10/12-12-12-12-12-12-12-|-12\10-10-10-10-10-10-10-|
A|-0--0-0--0-0-0-|-3--3-3--3-3-3-|-8--8-8--8-8-8-|-10/12-12-12-12-12-12-12-|-12\10-10-10-10-10-10-10-|
D|-0--0-0--0-0-0-|-3--3-3--3-3-3-|-8--8-8--8-8-8-|-10/12-12-12-12-12-12-12-|-12\10-10-10-10-10-10-10-|x2
   x  x x  x x x   x  x x  x x x   x  x x  x x x

Gtr. 2
e|-----|----|-----|---|-----|----|-------------------------|-------------------------|
B|-----|----|-----|---|-----|----|-------------------------|-------------------------|
G|-7-9-|-11-|-7-9-|-5-|-7-9-|-11-|-12/14-14-14-14-14-14-14-|-14\12-12-12-12-12-12-12-|
D|-x-x-|-x--|-x-x-|-x-|-x-x-|-x--|-x--x--x--x--x--x--x--x--|-x--x--x--x--x--x--x--x--|
A|-5-7-|-9--|-5-7-|-3-|-5-7-|-9--|-10/12-12-12-12-12-12-12-|-12-10-10-10-10-10-10-10-|
D|-----|----|-----|---|-----|----|-------------------------|-------------------------|x2


"Wake up. Engage!"

Gtr. 1
e|---------------|---------------|---------------|-------------------------|-------------------------|
B|---------------|---------------|---------------|-------------------------|-------------------------|
G|---------------|---------------|---------------|-------------------------|-------------------------|
D|-0--0-0--0-0-0-|-3--3-3--3-3-3-|-8--8-8--8-8-8-|-10/12-12-12-12-12-12-12-|-12\10-10-10-10-10-10-10-|
A|-0--0-0--0-0-0-|-3--3-3--3-3-3-|-8--8-8--8-8-8-|-10/12-12-12-12-12-12-12-|-12\10-10-10-10-10-10-10-|
D|-0--0-0--0-0-0-|-3--3-3--3-3-3-|-8--8-8--8-8-8-|-10/12-12-12-12-12-12-12-|-12\10-10-10-10-10-10-10-|x6

Gtr. 2
e|---------------|---------------|---------------|-------------------------|-------------------------|
B|---------------|---------------|---------------|-------------------------|-------------------------|
G|---------------|---------------|---------------|-12/14-14-14-14-14-14-14-|-14\12-12-12-12-12-12-12-|
D|-0--0-0--0-0-0-|-3--3-3--3-3-3-|-8--8-8--8-8-8-|-X--X--X--X--X--X--X--X--|-X--X--X--X--X--X--X--X--|
A|-0--0-0--0-0-0-|-3--3-3--3-3-3-|-8--8-8--8-8-8-|-10/12-12-12-12-12-12-12-|-12\10-10-10-10-10-10-10-|
D|-0--0-0--0-0-0-|-3--3-3--3-3-3-|-8--8-8--8-8-8-|-------------------------|-------------------------|X6


Break:

Gtr. 1
e|---------------|---------------|--------------------|-------------------------|-------------------------|
B|---------------|---------------|--------------------|-------------------------|-------------------------|
G|---------------|---------------|--------------------|-12/14-14-14-14-14-14-14-|-14\12-12-12-12-12-12-12-|
D|---------3\2-0-|---------3\2-3-|-----------------10-|-X--X--X--X--X--X--X--X--|-X--X--X--X--X--X--X--X--|
A|-------------0-|-------------3-|-------------7/8-10-|-10/12-12-12-12-12-12-12-|-12\10-10-10-10-10-10-10-|
D|-0-0-0-0-----0-|-3-3-3-3-----3-|-10-10-10-10-----10-|-------------------------|-------------------------|X2
   x x x x         x x x x          x  x  x  x

Gtr. 2
e|---------------|---------------|--------------------|-----------|------------|
B|---------------|---------------|--------------------|-----------|------------|
G|---------------|---------------|--------------------|-7/9---9\7-|-11\9---7/9-|
D|---------3\2-0-|---------3\2-3-|-----------------10-|-x-x---x-x-|--x-x---x-x-|
A|-------------0-|-------------3-|-------------7/8-10-|-5/7---7\5-|--9\7---5/7-|
D|-0-0-0-0-----0-|-3-3-3-3-----3-|-10-10-10-10-----10-|-----------|------------|X2
   x x x x         x x x x          x  x  x  x

"Drinks to Pills to Shots..."

Gtr. 2
e|--------|-15-17-15----|
B|-15--13-|----------13-|
G|--------|-------------|
D|--------|-------------|
A|--------|-------------|
D|--------|-------------|x8

Gtr. 1
e|-----------------|-----------------|
B|-----------------|-----------------|
G|-------------5-5-|-5-5-5-5-5-5-5-7-|
D|-3-3-3-0-0-0-5-5-|-5-5-5-5-5-5-5-7-|
A|-3-3-3-0-0-0-3-3-|-3-3-3-3-3-3-3-5-|
D|-3-3-3-0-0-0-----|-----------------|X4


"Trust no one..."

Both gtr.
e|-----------------|-----------------|
B|-----------------|-----------------|
G|-------------5-5-|-5-5-5-5-5-5-5-7-|
D|-3-3-3-0-0-0-5-5-|-5-5-5-5-5-5-5-7-|
A|-3-3-3-0-0-0-3-3-|-3-3-3-3-3-3-3-5-|
D|-3-3-3-0-0-0-----|-----------------|X8


[Break]

"Wake up. Engage!"

Gtr. 1
e|---------------|---------------|---------------|-------------------------|-------------------------|
B|---------------|---------------|---------------|-------------------------|-------------------------|
G|---------------|---------------|---------------|-------------------------|-------------------------|
D|-0--0-0--0-0-0-|-3--3-3--3-3-3-|-8--8-8--8-8-8-|-10/12-12-12-12-12-12-12-|-12\10-10-10-10-10-10-10-|
A|-0--0-0--0-0-0-|-3--3-3--3-3-3-|-8--8-8--8-8-8-|-10/12-12-12-12-12-12-12-|-12\10-10-10-10-10-10-10-|
D|-0--0-0--0-0-0-|-3--3-3--3-3-3-|-8--8-8--8-8-8-|-10/12-12-12-12-12-12-12-|-12\10-10-10-10-10-10-10-|x6

Gtr. 2
e|---------------|---------------|---------------|-------------------------|-------------------------|
B|---------------|---------------|---------------|-------------------------|-------------------------|
G|---------------|---------------|---------------|-12/14-14-14-14-14-14-14-|-14\12-12-12-12-12-12-12-|
D|-0--0-0--0-0-0-|-3--3-3--3-3-3-|-8--8-8--8-8-8-|-X--X--X--X--X--X--X--X--|-X--X--X--X--X--X--X--X--|
A|-0--0-0--0-0-0-|-3--3-3--3-3-3-|-8--8-8--8-8-8-|-10/12-12-12-12-12-12-12-|-12\10-10-10-10-10-10-10-|
D|-0--0-0--0-0-0-|-3--3-3--3-3-3-|-8--8-8--8-8-8-|-------------------------|-------------------------|X2

e|----------------------|--------------------|
B|----------------------|--------------------|
G|-10-10-10-9-9-9-12-12-|-12-9-9-9-10-10-9-9-|
D|----------------------|--------------------|
A|----------------------|--------------------|
D|----------------------|--------------------|x16


OUT:

Both Gtr.
e|---------------|
B|---------------|
G|---------------|
D|---------3\2-0-|
A|-------------0-|
D|-0-0-0-0-----0-|
    x x x x


| /  slide up
| \  slide down
| h  hammer-on
| p  pull-off
| ~  vibrato
| +  harmonic
| x  Mute note
---------------
            
Submit corrections

comments powered by Disqus
↑ Back to top | Boy Sets Fire Tabs for Rookie. Lyrics for acoustic guitar and electric guitar. 1 Tablatures and chords are parodies/interpretations of the original songs. You may use it for private study, scholarship, research or language learning purposes only