» » »

Boy Sets Fire, Last Year's Nest Tabs (ver.1)

Artists:  A B C D E F G H I J K L M N O P Q R S T U V W X Y Z # 

Last Year's Nest Tabs (ver.1)

Boy Sets Fire Tabs
 Rating:
4/5 (4 votes)
Last Year's Nest lessons Tabs too difficult? Try these video lessons and learn fast
1
                -------------------------------------------------------------------------------
			     Last Years Nest - Boy Sets Fire
-------------------------------------------------------------------------------

Tuning: DADGBe (aka, Dropped D)



(The Muted Strings in the Intro are best muted at fret 1)

Guitar 1 (Second Time G2)
e|----------------|	
B|----------------|	
G|----------------|	
D|-2/4-444--xxxxx-|	x2
A|-2/4-444--xxxxx-|	
D|-2/4-444--xxxxx-| 


Guitar 1 + Guitar 2
e|----------------|	
B|----------------|	
G|----------------|	
D|-2/4-444--xxxxx-|	x2
A|-2/4-444--xxxxx-|	
D|-2/4-444--xxxxx-| 

Guitar 1
e|--------|	
B|--------|	
G|--------|	
D|-2/4-444|	x1
A|-2/4-444|	
D|-2/4-444| 

Guitar 1
e|------------|
B|------------|
G|------------|
D|--0--h2-x-4-| 
A|--0--h2-x-4-| 
D|--0--h2-x-4-|
    PM

Guitar 1
e|----------------|	
B|----------------|	
G|----------------|	
D|-2/4-444--xxxxx-|	x4
A|-2/4-444--xxxxx-|	
D|-2/4-444--xxxxx-| 
|
Guitar 2
|
e|----------------------------|	
B|----------------------------|	
G|-9h11-11-11-11-11-11-11-11--|	
D|----------------------------|	x4
A|----------------------------|	
D|----------------------------| 

(Either Guitar)
e|--------|
B|--------|
G|--------|
D|-0~-h2--|
A|-0~-h2--|
D|-0~-h2--|

Guitar 1
e|---------------------------------------|
B|---------------------------------------|
G|---------------------------------------|
D|-44444444--00000000---9999999999999999-|   x2
A|-44444444--00000000---9999999999999999-|
D|-44444444--00000000---9999999999999999-|
|
Guitar 2
|
e|-----------------------------------|	
B|-----------------------------------|	
G|-----------6/7-7/9-9/11-11---------|	
D|-----------x/x-x/x-x/x--x-(strum)--|	x2 (Start after G1 finishes the 4's)
A|-----------4/5-5/7-7/9--9----------|	
D|-----------------------------------| 

guitar 1
e|---------|
B|---------|
G|---------|
D|-2/4-444-|
A|-2/4-444-|
D|-2/4-444-|

Guitar 1 + Guitar 2
e|----------------|	
B|----------------|	
G|----------------|	
D|-2/4-444--xxxxx-|	x3
A|-2/4-444--xxxxx-|	
D|-2/4-444--xxxxx-| 

Guitar 1
e|------------|
B|------------|
G|------------|
D|--0--h2-x-4-| 
A|--0--h2-x-4-| 
D|--0--h2-x-4-|
    PM

Guitar 1
e|----------------|	
B|----------------|	
G|----------------|	
D|-2/4-444--xxxxx-|	x4
A|-2/4-444--xxxxx-|	
D|-2/4-444--xxxxx-| 
|
Guitar 2
|
e|----------------------------|	
B|----------------------------|	
G|-9h11-11-11-11-11-11-11-11--|	
D|----------------------------|	x4
A|----------------------------|	
D|----------------------------| 

(Either Guitar)
e|--------|
B|--------|
G|--------|
D|-0~-h2--|
A|-0~-h2--|
D|-0~-h2--|

Guitar 1
e|---------------------------------------|
B|---------------------------------------|
G|---------------------------------------|
D|-44444444--00000000---9999999999999999-|   x4
A|-44444444--00000000---9999999999999999-|
D|-44444444--00000000---9999999999999999-|
|
Guitar 2
|
e|-----------------------------------|	
B|-----------------------------------|	
G|-----------6/7-7/9-9/11-11---------|	
D|-----------x/x-x/x-x/x--x-(strum)--|	x4 (Start after G1 finishes the 4's)
A|-----------4/5-5/7-7/9--9----------|	
D|-----------------------------------| 


Guitar 1
e|--------------|
B|--------------|
G|--------------|
D|-4-p-0-h-9-/--|   x2
A|-4-p-0-h-9-/--|
D|-4-p-0-h-9-/--|


Guitar 1
e|--------------------------------|
B|-------------14-----------------|
G|-------14-----------14-------14-|
D|-14/16----16----16-------16-----|
A|--------------------------------|
D|--------------------------------|
Guitar 1 Continued
e|-----------------------------------------------|
B|-----------------------------------------------|
G|----13h14p13-----------------14-----14/13------|
D|16-----------14----14/16--16-----16---------14-|  (whole solo x6)
A|----------------16-----------------------------|
D|-----------------------------------------------|
|
Guitar 2
|
e|--------------|
B|--------------|
G|--------------|
D|-4-p-0-h-9-/--|   x4
A|-4-p-0-h-9-/--|
D|-4-p-0-h-9-/--|
| Guitar 2, Continued
e|----------|
B|----------|
G|----------|
D|-4--0---9-|   x2
A|-4--0---9-|
D|-4--0---9-|

Guitar 2
e|---------------------|
B|---------------------|
G|---------------------|
D|----9999999999999999-|   x1
A|----9999999999999999-|
D|----9999999999999999-|
      |------PM------|

Guitar 1
e|---------------------------------------|
B|---------------------------------------|
G|---------------------------------------|
D|-44444444--00000000---9999999999999999-|   x4
A|-44444444--00000000---9999999999999999-|
D|-44444444--00000000---9999999999999999-|
|
Guitar 2
|
e|-----------------------------------|	
B|-----------------------------------|	
G|-----------6/7-7/9-9----11---------|	
D|-----------x/x-x/x-x----x-(strum)--|	x4 
A|-----------4/5-5/7-7----9----------|	
D|-----------------------------------| 


Guitar 1 + 2
e|----------|
B|----------|
G|----------|
D|-xxxxxxxx-|	
A|-xxxxxxxx-|
D|-xxxxxxxx-|

Guitar 1 + Guitar 2
e|----------------|	
B|----------------|	
G|----------------|	
D|-2/4-444--xxxxx-|	x4
A|-2/4-444--xxxxx-|	
D|-2/4-444--xxxxx-|
            
Submit corrections

comments powered by Disqus
↑ Back to top | Boy Sets Fire Tabs for Last Year's Nest. Lyrics for acoustic guitar and electric guitar. 1 Tablatures and chords are parodies/interpretations of the original songs. You may use it for private study, scholarship, research or language learning purposes only