» » »

Suzie Tabs (ver.2)

Artists:  A B C D E F G H I J K L M N O P Q R S T U V W X Y Z # 

Suzie Tabs (ver.2)

Boy Kill Boy
Rating:
5/5 (4 votes)

Hard to play? Try these video lessons and learn fast.
                I decided to tab this song to a 2 guitar setup. I think this second guitar is good 
to replace the keyboard in the song, if playing in a band.

Intro:

Gtr 1
E|----2-2---3-3---5-5--|
B|----3-3---5-5---7-7--|
G|----4-4---5-5---7-7--|  x2
D|----4-4---5-5---7-7--|
A|----2-2---3-3---5-5--|
E----------------------|

Gtr 2
E|---------------------|
B|---------------------|
G|----7-7---9-9---1111-|  x2
D|----x-x---x-x----x-x-|
A|----x-x---x-x----x-x-|
E|----7-7---8-8---1010-|

Verse:

Gtr 1
E|----2-2---3-3---5-5--|
B|----3-3---5-5---7-7--|
G|----4-4---5-5---7-7--|  x8
D|----4-4---5-5---7-7--|
A|----2-2---3-3---5-5--|
E----------------------|

Gtr 2
E|---------------------|
B|---------------------|
G|----7-7---9-9---1111-|  x8
D|----x-x---x-x----x-x-|
A|----x-x---x-x----x-x-|
E|----7-7---8-8---1010-|

Pre-Chorus:

E|----3-3---2-2---3-3---2-2---|
B|----3-3---3-2---3-3---3-3---|
G|----4-4---4-4---4-4---4-4---|  x2
D|----5-5---4-4---5-5---4-4---|
A|----5-5---2-2---5-5---2-2---|
E|----3-3---------3-3---------|

then

E|----------------------------|
B|--7777-8888-1010101010101010|
G|--7777-7777-7-7-7-7-7-7-7-7-|  x1
D|----------------------------|
A|----------------------------|
E|----------------------------|

Chorus:

Gtr 1
E|----3----5----0----5----|
B|----3----5----0----7----|
G|----4----5----0----7----|  x4
D|----5----7----2----7----|
A|----5----7----2----5----|
E|----3----5----0---------|

Gtr 2
E|----------------------------------|
B|----------------------------------|
G|---12------12------9------7-------|
D|---12------12------9------7-------|  X4
A|---10-------0------7------5-------|
E|----------------------------------|


Guitar 2 may want to follow the pattern:

E|----------------------------------|
B|----------------------------------|
G|---12------14------9------7-------|
D|---12------14------9------7-------|  X2
A|---10------12------7------5-------|
E|----------------------------------|

Do which ever you think sounds best lol

Pre-Verse:

E|----2-2---3-3---5-5-|
B|----3-3---5-5---7-7-|
G|----4-4---5-5---7-7-|  x1
D|----4-4---5-5---7-7-|
A|----2-2---3-3---5-5-|
E|--------------------|

Bridge:

E|--------------------------------------------------------------------|
B|--------------------------------------------------------------------|
G|------------4-4-5-5--------4-4-5-5---------5-5-7-7--------5-5-7-7---|  x2
D|--------5-5------------5-5-------------7-7------------7-7-----------|
A|----3-3------------3-3-------------5-5------------5-5---------------|
E|--------------------------------------------------------------------|

then

Gtr 1
E|----3-3-3----5-5-5---0-0-0---5-5-5----|
B|----3-3-3----5-5-5---0-0-0---7-7-7----|
G|----4-4-4----5-5-5---0-0-0---7-7-7----|  x2
D|----5-5-5----7-7-7---2-2-2---7-7-7----|
A|----5-5-5----7-7-7---2-2-2---5-5-5----|
E|----3-3-3----5-5-5---0-0-0------------|

Gtr 2
E|--------------------------------------|
B|--------------------------------------|
G|---121212---121212---9-9-9---7-7-7----|
D|---121212---121212---9-9-9---7-7-7----|  X2
A|---101010----0-0-0---7-7-7---5-5-5----|
E|--------------------------------------|

Again guitar 2 may want to follow the pattern:

E|--------------------------------------|
B|--------------------------------------|
G|---121212---141414---9-9-9---7-7-7----|
D|---121212---141414---9-9-9---7-7-7----|  X2
A|---101010---121212---7-7-7---5-5-5----|
E|--------------------------------------|

Ending:

Gtr 1
E|----2---|
B|----3---|
G|----4---|
D|----4---|
A|----2---|
E|--------|

Gtr 2
E|----3---|
B|----0---|
G|----0---|
D|----0---|
A|----2---|
E|----3---|
            
Hard to play? Try these video lessons and learn fast. | Correct




comments powered by Disqus
↑ Back to top | Tablatures and chords are parodies/interpretations of the original songs. You may use it for private study, scholarship, research or language learning purposes only