» » »

Promises Bass tabs (ver.1)

Artists:  A B C D E F G H I J K L M N O P Q R S T U V W X Y Z # 

Promises Bass tabs (ver.1)

Boy Kill Boy
Rating:
4/5 (1 vote)

Hard to play? Try these video lessons and learn fast.
                Intro and Verse
G|---------------------------------|
D|---------------------------------|
A|4-4-4-4-4-4-4-22-0-0-0-0-0-0-0-22|
E|---------------------------------|

Pre-Chorus
G|-------------------------------|
D|-------------------------------|
A|2-2-2-2-2-2-2-2-0-0-0-0-2-2-2-2|
E|-------------------------------|

Chorus
G|------------------------------------|
D|------------------------------------|
A|4-444-44-0-000-00----------0-000-00-|
E|------------------2-222-22----------|

Verse

Pre-Chorus

Chorus

Bridge
G|-------------------------------------------------------------------------|
D|-------------------------------------------------------------------------|
A|0-11-9-6-7-6-4-2-0-11-9-6-7-6-4-2-0-11-9-6-7-6-4-2-----------------------|
E|---------------------------------------------------2202020220202044444444|

Chorus until end, Kev adds some fills in the last chorus to make it more interesting.
            
Hard to play? Try these video lessons and learn fast. | Correct




comments powered by Disqus
↑ Back to top | Tablatures and chords are parodies/interpretations of the original songs. You may use it for private study, scholarship, research or language learning purposes only