» » »

Boy Kill Boy, Maneater Tabs (ver.1)

Artists:  A B C D E F G H I J K L M N O P Q R S T U V W X Y Z # 

Maneater Tabs (ver.1)

Boy Kill Boy Tabs
 Rating:
4/5 (4 votes)
Maneater lessons Tabs too difficult? Try these video lessons and learn fast
                -----------------------------------------------------------------------------
-----------------------------------------------------------------------------


Saw them do an acoustic gig at Camden - this was probably the highlight, file
under 'Great Cover Versions' (along with Lemonheads' "Knowing Me Knowing You")

Enjoy, and plz rate!



Tuning: Standard


INTRO
e|------------------------------------------------------------------------|
B|------------------------------------------------------------------------|
G|------------------------------------------------------------------------|
D|-------------------7X--7X-----------------------------------------------|
A|-------------------5X--5X-----------------------------------------------|
E|--5-5-7-5--8-5-7-5------------------------------------------------------|

x4, then...

e|------------------------------------------------------------------------|
B|------------------------------------------------------------------------|
G|------------------------------------------------------------------------|
D|--1010-1010--9----------------------------------------------------------|
A|--8-8--8-8---7----------------------------------------------------------|
E|------------------------------------------------------------------------|

[Verse 1]
A5                 D5
Everybody look at me, me
A5                         D5
I walk in the door you start screaming
A5                       D5
Come on everybody what chu here for?
A5                       D5
Move your body around like a nympho
A5                      D5
Everybody get your necks to crack around
A5                      D5
All you crazy people come on jump around
A5                     D5
I want to see you all on your knees, knees
A5                     D5                   F5-E5
You either want to be with me, or be me!




[Chorus]
F5                   G5
Maneater, make you work hard
E5                 
Make you spend hard
F5
Make you want all, of her love
F5 
She's a maneater
          G5
make you buy cars
        E5
make you cut cords
   F5
make you fall, real hard in love
    F5                G5
She's a Maneater, make you work hard
      E5
Make you spend hard
       F5
Make you want all, of her love
F5
She's a maneater
     G5
make you buy cars
    E5
make you cut cords
     F5                        D5      F5-E5
Wish you never ever met her at all!

repeat Intro x2




[Verse 2]
A5                         D5
And when she walks she walks with passion
A5                        D5
when she talks, she talks like she can handle it
A5                       D5
when she asks for something boy she means it
A5                  D5
even if you never ever seen it
A5                        D5
everybody get your necks to crack around
A5                     D5
all you crazy people come on jump around
A5                   D5
you doing anything to keep her by your side
A5                       D5                      F5-E5
because, she said she love you, love you long time!



repeat CHORUS

Outro Riff, piano tabbed for guitar (2:22)
e|------------------------------------------------------------------------|
B|------------------------------------------------------------------------|
G|------------------------------------------------------------------------|
D|---7--5----------7X--X7-------------------------------------------------|
A|--------7-5------5X--X5-------------------------------------------------|
E|------------8-5---------------------------------------------------------|
X4, then

e|------------------------------------------------------------------------|
B|------------------------------------------------------------------------|
G|------------------------------------------------------------------------|
D|--1010-1010--9----------------------------------------------------------|
A|--8-8--8-8---7----------------------------------------------------------|
E|------------------------------------------------------------------------|

Outro chords same as CHORUS


| /  slide up
| \  slide down
| h  hammer-on
| p  pull-off
| ~  vibrato
| +  harmonic
| x  Mute note
===============================================================================
            
Submit corrections

comments powered by Disqus
↑ Back to top | Boy Kill Boy Tabs for Maneater. Lyrics for acoustic guitar and electric guitar. Tablatures and chords are parodies/interpretations of the original songs. You may use it for private study, scholarship, research or language learning purposes only