» » »

Boy Kill Boy, Civil Sin Tabs (ver.1)

Artists:  A B C D E F G H I J K L M N O P Q R S T U V W X Y Z # 

Civil Sin Tabs (ver.1)

Boy Kill Boy Tabs
Rating:
4/5 (1 vote)
Civil Sin lessons Tabs too difficult? Try these video lessons and learn fast
                (Intro)
Pista 1
     E  E  E  E  E  E  E  E     E  E  E  E  E  E  E  E   
E||--------------------------|--------------------------|
B||--------------------------|--------------------------|
G||--5--5--5--5--5--5--5--5--|--5--5--5--5--5--5--5--0--|
D||--7--7--7--7--7--7--7--7--|--7--7--7--7--7--7--7--0--|
A||--7--7--7--7--7--7--7--7--|--8--8--8--8--8--8--8--0--|
E||--------------------------|--------------------------|


   E   E   E   E   E   E   E  E     E  E  E  E  E  E  E  E   
---------------------------------|--------------------------|
---------------------------------|--------------------------|
---7---7---7---7---7---7---7--0--|--9--9--9--9--9--9--9--9--|
---9---9---9---9---9---9---9--0--|--9--9--9--9--9--9--9--9--|
--10--10--10--10--10--10--10--0--|--7--7--7--7--7--7--7--7--|
---------------------------------|--------------------------|


   E   E   E   E   E   E   E   E     E  E  E  E  E  E  E  E   
----------------------------------|--------------------------|
----------------------------------|--------------------------|
--10--10--10--10--10--10--10--10--|--7--7--7--7--7--7--7--7--|
--10--10--10--10--10--10--10--10--|--7--7--7--7--7--7--7--7--|
---8---8---8---8---8---8---8---8--|--5--5--5--5--5--5--5--5--|
----------------------------------|--------------------------|


  E  E  E  E  E  E  E  E     E  E  E  E  E  E  E  E   
--------------------------|--------------------------|
--------------------------|--------------------------|
--8--8--8--8--8--8--8--8--|--9--9--9--9--9--9--9--9--|
--7--7--7--7--7--7--7--7--|--6--6--6--6--6--6--6--6--|
--6--6--6--6--6--6--6--6--|--7--7--7--7--7--7--7--7--|
--------------------------|--------------------------|


  E  E  E  E  E  E  E  E     E  E  E  E  E  E  E  E   
--------------------------|--------------------------|
--------------------------|--------------------------|
--------------------------|--------------------------|
--7--7--7--7--7--7--7--7--|--7--7--7--7--7--7--7--7--|
--7--7--7--7--7--7--7--7--|--7--7--7--7--7--7--7--7--|
--5--5--5--5--5--5--5--5--|--5--5--5--5--5--5--5--5--|


  E  E  E  E  E  E  E  E     E  E  E  E     E  E  E  E  E  E  E  E   
--------------------------|--------------|--------------------------|
--------------------------|--------------|--------------------------|
--------------------------|--------------|--------------------------|
--5--5--5--5--5--5--5--0--|--4--4--4-----|--7--7--7--7--7--7--7--7--|
--3--3--3--3--3--3--3--0--|--4--4--4-----|--7--7--7--7--7--7--7--7--|
--3--3--3--3--3--3--3--0--|--2--2--2-----|--5--5--5--5--5--5--5--5--|


  E  E  E  E  E  E  E  E     E  E  E  E  E  E  E  E     E  E  E  E   
--------------------------|--------------------------|--------------|
--------------------------|--------------------------|--------------|
--------------------------|--------------------------|--------------|
--7--7--7--7--7--7--7--7--|--5--5--5--5--5--5--5--0--|--4--4--4-----|
--7--7--7--7--7--7--7--7--|--3--3--3--3--3--3--3--0--|--4--4--4-----|
--5--5--5--5--5--5--5--5--|--3--3--3--3--3--3--3--0--|--2--2--2-----|






Duration Legend
---------------
W - whole
H - half
Q - quarter
E - 8th
S - 16th
T - 32nd
X - 64th
. - note dotted
|-n-|  - n-tuplets


Tablature Legend
----------------
L - tied note
x - dead note
g - grace note
(n) - ghost note
> - accentuded note
NH - natural harmonic
AH - artificial harmonic
TH - tapped harmonic
SH - semi harmonic
PH - pitch harmonic
h - hammer on
p - pull off
b - bend
br - bendRelease
pb - preBend
pbr - preBendRelease
brb - bendReleaseBend
\n/ - tremolo bar dip
\n - tremolo bar dive
-/n - tremolo bar Release up
/n\ - tremolo bar inverted dip
/n - tremolo bar return
-\n - tremolo bar Release down
S - shift slide
s - legato slide
/ -  slide into from below or out of upwards
\ -  slide into from above or out of downwards
~ - vibrato
W - wide vibrato
tr - trill
TP - tremolo picking
T - tapping
S - slap
P - pop
< - fade in
^ - brush up
v - brush down
            

comments powered by Disqus
↑ Back to top | Boy Kill Boy Tabs for Civil Sin. Lyrics for acoustic guitar and electric guitar. Tablatures and chords are parodies/interpretations of the original songs. You may use it for private study, scholarship, research or language learning purposes only