» » »

Boy Kill Boy, Back Again Bass tabs (ver.1)

Artists:  A B C D E F G H I J K L M N O P Q R S T U V W X Y Z # 

Back Again Bass tabs (ver.1)

Boy Kill Boy Tabs
Rating:
3/5 (2 votes)
Back Again lessons Tabs too difficult? Try these video lessons and learn fast
                ----------------------------------------------------------------------------
			     Boy Kill Boy – Back Again
----------------------------------------------------------------------------

you need to add on: .ac.uk

Tuning: E A D G

Intro / Main Riff
G|-----------------|
D|---------7-7-----|
A|-----5-5---------| x 4
E|-7-7---------5-5-|

Verse
G|-----------------|      |---------------------------------|
D|---------7-7-----|      |---------------------------------|
A|-----5-5---------| x 4  |---------------------------------| x 2
E|-7-7---------5-5-|      |-3-3-3-3-3-3-3-3-0-0-0-0-0-0-0-0-|

G|-----------------|      |---------------------------------|
D|---------7-7-----|      |---------------------------------|
A|-----5-5---------| x 4  |---------------------------------| x 2
E|-7-7---------5-5-|      |-5-5-5-5-5-5-5-5-2-2-2-2-2-2-2-2-|

Prechorus: Main Riff x 4
                                           
Chorus
Can I find some more misery?
G|----------------------------------------------------------------------|
D|----------------------------------------------------------------------|
A|----------------------------------------------------------------------|
E|-7-7-7-7-7-7-7-7-2-2-2-2-2-2-2-2-3-3-3-3-3-3-3-3-7-7-7-7-6-6-6-6--5-5-|

G|-------------------------------------------------------------------------|
D|-------------------------------------------------------------------------|
A|-------------------------------------------------7-7-7-2-2-2-7-7-7-2-2-2-|
E|-7-7-7-7-7-7-7-7-2-2-2-2-2-2-2-2-3-3-3-3-3-3-3-3-------------------------|

Main Riff x 4

Verse

Prechorus

Chorus

Bridge
G|-------------------|
D|-------------------|
A|-7~--5-7----7~---7-| x 4
E|----------5-----7--|

Final Prechorus
G|-------------------------------------------------|
D|-------------------------------------------------|
A|-5-5-5-5-5-5-5-5-5-5-5-5-5-5-5-5-5-5-5-5-5-5-5-5-|
E|-------------------------------------------------|

Last Chorus
G|-----------------------------------------------------------------------|
D|-----------------------------------------------------------------------|
A|-----------------------------------------------------------------------|
E|-7--7--7--7--7--7-2-2-2-2-2-2-2-2-3-3-3-3-3-3-3-3-7-7-7-7-6-6-6-6--5-5-|

G|-------------------------------------------------------------------------|
D|-------------------------------------------------------------------------|
A|-------------------------------------------------7-7-7-2-2-2-7-7-7-2-2-2-|
E|-7-7-7-7-7-7-7-7-2-2-2-2-2-2-2-2-3-3-3-3-3-3-3-3-------------------------|

Main Riff x 8

End on:
G|-----|
D|-----|
A|-----|
E|-7~--|

 ~  vibrato (hold)
            
Submit corrections

comments powered by Disqus
↑ Back to top | Boy Kill Boy Bass for Back Again. Lyrics for acoustic guitar and electric guitar. Tablatures and chords are parodies/interpretations of the original songs. You may use it for private study, scholarship, research or language learning purposes only