» » »

Turning Inward Tabs (ver.1)

Artists:  A B C D E F G H I J K L M N O P Q R S T U V W X Y Z # 

Turning Inward Tabs (ver.1)

Boy Hits Car
Rating:
0/5 (0 votes)

Hard to play? Try these video lessons and learn fast.
                Band: Boy Hits Car

CRegg - 12-string acoustic guitar (CGCFGC)
Louis - Electric-guitar (CGCFAD)

CRegg
(0:00)                                                                                                    x2
C||--0----0---0--0-0--0-0---|--0----0---0--0-0--0-0---|--0----0---0--0-0--0-0---|--0----0---0--0-0--0-0---||
G||--0----0---0--0-0--0-0---|--0----0---0--0-0--0-0---|--0----0---0--0-0--0-0---|--0----0---0--0-0--0-0---||
F||--2----2---2--2-2--2-2---|--3----3---3--3-3--3-3---|--5----5---5--5-5--5-5---|--0----0---0--0-0--0-0---||
C||--0----0---0--0-0--0-0---|--0----0---0--0-0--0-0---|--0----0---0--0-0--0-0---|--0----0---0--0-0--0-0---||
G||-------------------------|-------------------------|-------------------------|-------------------------||
C||-------------------------|-------------------------|-------------------------|-------------------------||

Louis
(0:19)                                                        x2
D||-----------------------------|-----------------------------||
A||-----------------------------|-----------------------------||
F||-----------------------------|-----------------------------||
C||--7-7-7-7---7-7-7-7--7-7-3/--|--5-5-5-5---5-5-5-5--5-5-----||
G||--5-5-5-5---5-5-5-5--5-5-1/--|--3-3-3-3---3-3-3-3--3-3-5---||
C||-----------------------------|-------------------------5---||

(0:48)                                                        x2
D||-----------------------------|-----------------------------||
A||-----------------------------|-----------------------------||
F||-----------------------------|-----------------------------||
C||--7-7-7-7---7-7-7-7--7-7-3/--|--5-5-5-5---5-5-5-5--5-5-----||
G||--5-5-5-5---5-5-5-5--5-5-1/--|--3-3-3-3---3-3-3-3--3-3-5---||
C||-----------------------------|-------------------------5---||

CRegg
(1:17)
C||--0----0---0--0-0--0-0---|--0----0---0--0-0--0-0---|--0----0---0--0-0--0-0---|--0----0---0--0-0--0-0---||
G||--0----0---0--0-0--0-0---|--0----0---0--0-0--0-0---|--0----0---0--0-0--0-0---|--0----0---0--0-0--0-0---||
F||--2----2---2--2-2--2-2---|--3----3---3--3-3--3-3---|--5----5---5--5-5--5-5---|--0----0---0--0-0--0-0---||
C||--0----0---0--0-0--0-0---|--0----0---0--0-0--0-0---|--0----0---0--0-0--0-0---|--0----0---0--0-0--0-0---||
G||-------------------------|-------------------------|-------------------------|-------------------------||
C||-------------------------|-------------------------|-------------------------|-------------------------||

Louis
(1:27)                                                        x4
D||-----------------------------|-----------------------------||
A||-----------------------------|-----------------------------||
F||-----------------------------|-----------------------------||
C||--7-7-7-7---7-7-7-7--7-7-3/--|--5-5-5-5---5-5-5-5--5-5-----||
G||--5-5-5-5---5-5-5-5--5-5-1/--|--3-3-3-3---3-3-3-3--3-3-5---||
C||-----------------------------|-------------------------5---||

(1:47)                                                                                                                                x2
D||--------------------------------|--------------------------------|--------------------------------|--------------------------------||
A||--------------------------------|--------------------------------|--------------------------------|--------------------------------||
F||--------------------------------|--------------------------------|--------------------------------|--------------------------------||
C||--5/7-7-7-7-7-5/7-7-7-7-7-5/7---|--2/3-3-3-3-3-2/3-3-3-3-3-2/3---|--3/5-5-5-5-5-3/5-5-5-5-5-3/5---|--------------------------------||
G||--3/5-5-5-5-5-3/5-5-5-5-5-3/5---|--0/1-1-1-1-1-0/1-1-1-1-1-0/1---|--1/3-3-3-3-3-1/3-3-3-3-3-1/3---|--5-5-5-5-5-5-5-5-5-5-5-5-5-5---||
C||--------------------------------|--------------------------------|--------------------------------|--5-5-5-5-5-5-5-5-5-5-5-5-5-5---||

(2:26)                                                        x2
D||-----------------------------|-----------------------------||
A||-----------------------------|-----------------------------||
F||-----------------------------|-----------------------------||
C||--7-7-7-7---7-7-7-7--7-7-3/--|--5-5-5-5---5-5-5-5--5-5-----||
G||--5-5-5-5---5-5-5-5--5-5-1/--|--3-3-3-3---3-3-3-3--3-3-5---||
C||-----------------------------|-------------------------5---||

(2:35)                                                        x4
D||-----------------------------|-----------------------------||
A||-----------------------------|-----------------------------||
F||-----------------------------|-----------------------------||
C||--7-7-7-7---7-7-7-7--7-7-3/--|--5-5-5-5---5-5-5-5--5-5-----||
G||--5-5-5-5---5-5-5-5--5-5-1/--|--3-3-3-3---3-3-3-3--3-3-5---||
C||-----------------------------|-------------------------5---||

(2:55)                                                                                                                                x2
D||--------------------------------|--------------------------------|--------------------------------|--------------------------------||
A||--------------------------------|--------------------------------|--------------------------------|--------------------------------||
F||--------------------------------|--------------------------------|--------------------------------|--------------------------------||
C||--5/7-7-7-7-7-5/7-7-7-7-7-5/7---|--2/3-3-3-3-3-2/3-3-3-3-3-2/3---|--3/5-5-5-5-5-3/5-5-5-5-5-3/5---|--------------------------------||
G||--3/5-5-5-5-5-3/5-5-5-5-5-3/5---|--0/1-1-1-1-1-0/1-1-1-1-1-0/1---|--1/3-3-3-3-3-1/3-3-3-3-3-1/3---|--5-5-5-5-5-5-5-5-5-5-5-5-5-5---||
C||--------------------------------|--------------------------------|--------------------------------|--5-5-5-5-5-5-5-5-5-5-5-5-5-5---||

CRegg
(3:14)
C||--0----0---0--0-0--0-0---|--0----0---0--0-0--0-0---|--0----0---0--0-0--0-0---|--0----0---0--0-0--0-0---||
G||--0----0---0--0-0--0-0---|--0----0---0--0-0--0-0---|--0----0---0--0-0--0-0---|--0----0---0--0-0--0-0---||
F||--2----2---2--2-2--2-2---|--3----3---3--3-3--3-3---|--5----5---5--5-5--5-5---|--0----0---0--0-0--0-0---||
C||--0----0---0--0-0--0-0---|--0----0---0--0-0--0-0---|--0----0---0--0-0--0-0---|--0----0---0--0-0--0-0---||
G||-------------------------|-------------------------|-------------------------|-------------------------||
C||-------------------------|-------------------------|-------------------------|-------------------------||




Boy Hits Car - RULES!!!
            
Hard to play? Try these video lessons and learn fast. | Correct




comments powered by Disqus
↑ Back to top | Tablatures and chords are parodies/interpretations of the original songs. You may use it for private study, scholarship, research or language learning purposes only