» » »

I Am A Cloud Bass tabs (ver.1)

Artists:  A B C D E F G H I J K L M N O P Q R S T U V W X Y Z # 

I Am A Cloud Bass tabs (ver.1)

Boy Hits Car
Rating:
0/5 (0 votes)

Hard to play? Try these video lessons and learn fast.
                This is a pretty easy song so have fun with it.  I'm not 
you have

Dropped D tuning (D, A, D, G)


Intro/Bridge
G|-------------12-------------|
D|--0-0--10p0-----10-10h12----|
A|----------------------------|
D|----------------------------|

Chorus
G|----------------------------|
D|----------------------------|
A|-------------10-------------|
D|--0-0--10p0-----10-10h12----|

Verse
G|------------------------------|
D|------------------------------|   I'm not sure if the verse is 
A|------------------------------|   right, but it is something 
D|--0-0h10p0-0--12--10-0h10-10--|   like this.


Pre Chorus
G|----------------------------|
D|--0-0--10p0--12-0-0h10------|
A|----------------------------|
E|----------------------------|




	**Order**			**Symbols**
	  Intro				5h6=hammer on
	  Chorus			6p5=pull off
	  Verse				\=slide down
	  Pre-Chorus			/=slide up
	  Chorus			~=bend note
	  Verse				x=mute
	  Pre-Chorus
	  Bridge
	  Chorus		


That's it.  Send any corrections, questions, hate mail and/or death

SEEYA!		
            
Hard to play? Try these video lessons and learn fast. | Correct




comments powered by Disqus
↑ Back to top | Tablatures and chords are parodies/interpretations of the original songs. You may use it for private study, scholarship, research or language learning purposes only