» » »

Boy Hits Car, Escape The World Tabs (ver.2)

Artists:  A B C D E F G H I J K L M N O P Q R S T U V W X Y Z # 

Escape The World Tabs (ver.2)

Boy Hits Car Tabs
Rating:
0/5 (0 votes)
Escape The World lessons Tabs too difficult? Try these video lessons and learn fast
                drop c

update of my tab for the intro of this song

|--------------------------------------------|
|--5-5-5-8-8-8-10-10-10-5-5-5-7-7-8-8--------|
|--2-2-2-5-5-5-7--7--7--2-2-2-4-4-5-5--------|
|--------------------------------------------|       x however much needed
|--------------------------------------------|
|--------------------------------------------|

|--5-
|--5-
|--7- chord that comes in at about 6 seconds
|--7-  strum up(not right but close enough)
|--5-
|--5-

chorus (distortion)
|-----------------------------------|
|-----------------------------------|
|--9-9-xx-7-7777-xx-2-2-xx5-5-5-5-5-|
|--9-9-xx-7-7777-xx-2-2-xx5-5-5-5-5-|
|--7-7-xx-5-5555-xx-0-0-xx3-3-3-3-3-|
|-----------------------------------|
x4

verse(guitar 1)
|------------------------------------------------------------|
|------------------------------------------------------------|
|------------------------------------------------------------|
|--2-2-2-3-3-3-6-6-6-7-7-7-3-3-6-6-2-2-2-3-3-3-2-2-2-0-0-0-2-|
|------------------------------------------------------------|
|------------------------------------------------------------|
x4

verse(guitar 2)
|----------|
|----------|  you will here when this comes in.
|----------|  maybe palm mute?
|--7-7-7-7-|
|--7-7-7-7-|
|--7-7-7-7-|

repeat chorus

repeat verse
not sure about the harmonic sounding thing in between each of guitar 1's riff.

repeat chorus

interlude thing
|------------------------------------------------------------|
|------------------------------------------------------------|
|------------------------------------------------------------|
|--2-2-2-3-3-3-6-6-6-7-7-7-3-3-6-6-2-2-2-3-3-3-2-2-2-0-0-0-2-|
|--2-2-2-3-3-3-6-6-6-7-7-7-3-3-6-6-2-2-2-3-3-3-2-2-2-0-0-0-2-|
|------------------------------------------------------------|

guitar 1
tremolo pick a 12 on the high e string and slide down when you hear him slide

guitar 2
|----------------------------------|
|----------------------------------|
|----------------------------------|
|--2-2-2-5-5-5-7-7-7-2-2-2-4-4-5-5-|
|--2-2-2-5-5-5-7-7-7-2-2-2-4-4-5-5-|
|--2-2-2-5-5-5-7-7-7-2-2-2-4-4-5-5-|

guitar 1 does acoustic bit again and somewhere during that gutiar 2 rings out
|-12-
|----
|----
|----
|----
|----

repeat chorus

repeat interlude

DONE!
            
Submit corrections

comments powered by Disqus
↑ Back to top | Boy Hits Car Tabs for Escape The World. Lyrics for acoustic guitar and electric guitar. Tablatures and chords are parodies/interpretations of the original songs. You may use it for private study, scholarship, research or language learning purposes only