» » »

Boy Hits Car, As I Watch The Sun *** The Ocean Bass tabs (ver.1)

Artists:  A B C D E F G H I J K L M N O P Q R S T U V W X Y Z # 

As I Watch The Sun *** The Ocean Bass tabs (ver.1)

Boy Hits Car Tabs
 Rating:
4/5 (4 votes)
As I Watch The Sun *** The Ocean lessons Tabs too difficult? Try these video lessons and learn fast
1
                Intro
G------------------------------------------------------------
C--16-0-0-17-0-0-19--0-19-0-0-16-12--10-0-0-12--0-0-13-0-----
A------------------------------------------------------------
D------------------------------------------------------------
17's, 17's,19's, 12's,and 13's

Then it gets heavier, play this
G------------------------------------------------------------
C--0--12-0-0--12--12---16-0-0-17--0-0-19-0--0-19-0-0--16--16-
A------------------------------------------------------------
D------------------------------------------------------------
12's, 16's, 17's and 19's

G--------------------------11--------------
C--10-0-0-12--0-0--13-0--0----0-0--12--12--
A------------------------------------------
D------------------------------------------
10's, 11's, 12's, 13's

G---------------------
C---------------------
A---------------------
D--1-0--0--0-1-3-0-0--

Thats all I tabbed out! Enjoy!
            
Submit corrections

comments powered by Disqus
↑ Back to top | Boy Hits Car Bass for As I Watch The Sun *** The Ocean. Lyrics for acoustic guitar and electric guitar. 1 Tablatures and chords are parodies/interpretations of the original songs. You may use it for private study, scholarship, research or language learning purposes only