» » »

Boyce Avenue, Every Breath Tabs (ver.3)

Artists:  A B C D E F G H I J K L M N O P Q R S T U V W X Y Z # 

Every Breath Tabs (ver.3)

Boyce Avenue Tabs
 Rating:
4/5 (4 votes)
Every Breath lessons Tabs too difficult? Try these video lessons and learn fast
1
                Boyce Avenue - Every breath (tab by Tchoynii)
it's not 100% correct
It's the guitar played by Fabian


Intro

e|-3--3--3----------------------------------------------5---3---3-|
B|----------6---5---5--3---5---3---3----5---3---5---5-------------|
G|--5--5--5---5---5---5---5---5---5---5---5---5---5---5---5---5---|
D|----------------------------------------------------------------|  x2
A|----------------------------------------------------------------|
E|----------------------------------------------------------------|

Verse

e|-------------0---------------------------3---------------------------------|
B|---3---------------------0-----------0-------0-------------0-----------3---|
G|-----5---------5-------5---5-------5---5---5-------------5---5-------5---5-|
D|-5---------5---------5-----------5-------------5/2-----5-----------5-------|
A|---------------------------------------------------------------------------|
E|---------------------------------------------------------------------------|

e|------------|
B|-6-5-3------|
G|-------5-4-5|
D|------------|
A|------------|
E|------------|

Chorus

e|-x---x---x---x---x--x---x----x----x---x-|
B|-x---x---x---x---x--x---x----x----x---x-|
G|-5---7---9---4---5--4---12---10---9---7-|
D|-x---x---x---x---x--x---x----x----x---x-|
A|-3---5---7---2---3--2---10---8----7---5-|
E|-x---x---x---x---x--x---x----x----x---x-|

e|-3--3--3----------------------------------------------5---3---3-|
B|----------6---5---5--3---5---3---3----5---3---5---5-------------|
G|--5--5--5---5---5---5---5---5---5---5---5---5---5---5---5---5---|
D|----------------------------------------------------------------|
A|----------------------------------------------------------------|
E|----------------------------------------------------------------|

Verse 2

e|-------------0---------------------------3---------------------------------|
B|---3---------------------0-----------0-------0-------------0-----------3---|
G|-----5---------5-------5---5-------5---5---5-------------5---5-------5---5-|
D|-5---------5---------5-----------5-------------5/2-----5-----------5-------|
A|---------------------------------------------------------------------------|
E|---------------------------------------------------------------------------|

e|------------|
B|-6-5-3------|
G|-------5-4-5|
D|------------|
A|------------|
E|------------|

Chorus 2

e|-x---x---x---x---x--x---x----x----x---x-|
B|-x---x---x---x---x--x---x----x----x---x-|
G|-5---7---9---4---5--4---12---10---9---7-|
D|-x---x---x---x---x--x---x----x----x---x-|
A|-3---5---7---2---3--2---10---8----7---5-|
E|-x---x---x---x---x--x---x----x----x---x-|

Bridge

e|-8-7-3--------|
B|------------3-|
G|----------5---|  x 2
D|--------5-----|
A|--------------|
E|--------------|


e|-------------------------------------8---8---8---8---8---8---7---7---8---8-|
B|-----------------3---3---3---3---3-----8---8---8---8---8---8---8---8---8---|
G|---5---5---5---5-----------------------------------------------------------|
D|-5---5---5---5-----5---5---5---5-------------------------------------------|
A|---------------------------------------------------------------------------|
E|---------------------------------------------------------------------------|

e|---8---8---8---8---7---7---5---5---5---5---7---7---7---7---8---8---8---8-|
B|-8---8---8---8---8---8---8---5---5---5---5---8---8---8---8---8---8---8---|
G|-------------------------------------------------------------------------|
D|-------------------------------------------------------------------------|
A|-------------------------------------------------------------------------|
E|-------------------------------------------------------------------------|

e|---7---7---8---8-8-|
B|-8---8---8---8-----|
G|-------------------|
D|-------------------|
A|-------------------|
E|-------------------|

Chorus

e|-x---x---x---x---x--x---x----x----x---x-|
B|-x---x---x---x---x--x---x----x----x---x-|
G|-5---7---9---4---5--4---12---10---9---7-|
D|-x---x---x---x---x--x---x----x----x---x-|
A|-3---5---7---2---3--2---10---8----7---5-|
E|-x---x---x---x---x--x---x----x----x---x-|

e|-x---x---x---x---x---x---x--x---x----x----x---x-|
B|-x---x---x---x---x---x---x--x---x----x----x---x-|
G|-5---7---9---4---7---9---5--4---12---10---9---7-|
D|-x---x---x---x---x---x---x--x---x----x----x---x-|
A|-3---5---7---2---5---7---3--2---10---8----7---5-|
E|-x---x---x---x---x---x---x--x---x----x----x---x-|

e|-3--3--3----------------------------------------------5---3---3-|
B|----------6---5---5--3---5---3---3----5---3---5---5-------------|
G|--5--5--5---5---5---5---5---5---5---5---5---5---5---5---5---5---|
D|----------------------------------------------------------------|  x2
A|----------------------------------------------------------------|
E|----------------------------------------------------------------|

End
            
Submit corrections

comments powered by Disqus
↑ Back to top | Boyce Avenue Tabs for Every Breath. Lyrics for acoustic guitar and electric guitar. 1 Tablatures and chords are parodies/interpretations of the original songs. You may use it for private study, scholarship, research or language learning purposes only