» » »

Boyce Avenue, Back For Good Tabs (ver.1)

Artists:  A B C D E F G H I J K L M N O P Q R S T U V W X Y Z # 

Back For Good Tabs (ver.1)

Boyce Avenue Tabs
Rating:
0/5 (0 votes)
Back For Good lessons Tabs too difficult? Try these video lessons and learn fast
                Back For Good - Take That (Boyce Avenue version)

Hi. :) I was so excited about Boyce Avenue's version of 'Back For Good' that I decided 
to make a tab of it.
That's my first tab anyway. It's pretty much D-Em-G-A progression, but some of you may 
be p**sed about bridge or weird voicings of chords that Alejandro uses in his great performance.
So here we go! ;-)

Tuning: standard (and capo on 1st fret)

---Chords---

   D    Em7    G    D/E    A   Asus4   Bm   Gmaj9  D/F#
e|-2-----3-----3-----2-----0-----0-----2-----2-----2----|
B|-3-----3-----3-----3-----2-----3-----3-----0-----3----|
G|-2-----0-----0-----2-----2-----2-----4-----0-----2----|
D|-0-----2-----0-----2-----2-----2-----4-----0-----0----|
A|-x-----2-----x-----x-----0-----0-----2-----x-----0----|
E|-x-----0-----3-----x-----x-----x-----x-----3-----2----|

---Intro (x2)---

e|-2----3----3----2--0--|
B|-3----3----3----3--2--|
G|-2----0----0----2--2--|
D|-0----2----0----2--2--|
A|-x----2----x----x--0--|
E|-x----0----3----x--x--|

---Verse (X4)(slighly palm-muted)---

e|-2----3----3----2--0--|
B|-3----3----3----3--2--|
G|-2----0----0----2--2--|
D|-0----2----0----2--2--|
A|-x----2----x----x--0--|
E|-x----0----3----x--x--|

---Pre-chorus (x1)(slightly palm-muted)---

e|-2----3----3----2--0----2----0----3----2--0--|
B|-3----3----3----3--2----3----2----3----3--2--|
G|-2----0----0----2--2----4----2----0----2--2--|
D|-0----2----0----2--2----4----2----0----2--2--|
A|-x----2----x----x--0----2----0----x----x--0--|
E|-x----0----3----x--x----x----x----3----x--x--|

---Chorus (x4)---

e|-2----3----3----2--0--|
B|-3----3----3----3--2--|
G|-2----0----0----2--2--|
D|-0----2----0----2--2--|
A|-x----2----x----x--0--|
E|-x----0----3----x--x--|

---Bridge---

e|-2----2--2--------------2----2----2----0----3----2----0----0----0----x--x--x----|
B|-0----3--2h3p2----------0----3----3----2----3----3----3----3----2----2--3--3/5~~|
G|-0----2--0-------(x2)---0----2----4----2----0----2----2----2----2----2--2--2/4~~|
D|-0----0--0--------------0----0----4----2----0----0----2----2----2----2--2--2/4~~|
A|-x----0--x--------------x----x----2----0----x----0----0----0----0----0--0--x----|
E|-3----x--x--------------3----x----x----x----3----2----x----x----x----x--x--x----|

---Outro---

e|-2----3----3----2--0-----2----3----3----2--0---x--|
B|-3----3----3----3--2h3---3----3----3----3--2---3~~|
G|-2----0----0----2--2-----2----0----0----2--2---2~~|
D|-0----2----0----2--2-----0----2----0----2--2---0~~|
A|-x----2----x----x--0-----x----2----x----x--0---0~~|
E|-x----0----3----x--x-----x----0----3----x--x---x--|

---Song order---

-Intro
-Verse
-Pre-chorus
-Chorus
-Verse
-Pre-chorus
-Chorus
-Bridge
-Chorus
-Chorus
-Outro

---Lyrics---

I guess now it's time for me to give up
I feel it's time
Got a picture of you beside me
Got your lipstick mark still on your coffee cup, oh yeah

Got a fist of pure emotion
Got a head of shattered dreams
Gotta leave it, gotta leave it all behind now

Whatever I said, whatever I did I didn't mean it
I just want you back for good
I want you back for good
Whenever I'm wrong just tell me the song and I'll sing it
You'll be right and understood
I want you back for good

Unaware but underlined I figured out this story
It wasn't good
But in the corner of my mind I celebrated glory
But that was not to be

In the twist of separation you excelled at being free
Can't you find a little room inside for me

Whatever I said, whatever I did I didn't mean it
I just want you back for good
I want you back for good
Whenever I'm wrong just tell me the song and I'll sing it
You'll be right and understood
I want you back for good

And we'll be together, this time is forever
We'll be fighting and forever we will be
So complete in our love
We will never be uncovered again

Whatever I said, whatever I did I didn't mean it
I just want you back for good
I want you back for good
Whenever I'm wrong just tell me the song and I'll sing it
You'll be right and understood
You see I want you back for good

Whatever I said, whatever I did I didn't mean it
I just want you back for good
You see I want you back for good
Whenever I'm wrong just tell me the song and I'll sing it
You'll be right and understood
You see I want you back for good

I guess now it's time, that you came back for good

---Enjoy! :)---
            

comments powered by Disqus
↑ Back to top | Boyce Avenue Tabs for Back For Good. Lyrics for acoustic guitar and electric guitar. Tablatures and chords are parodies/interpretations of the original songs. You may use it for private study, scholarship, research or language learning purposes only