>
 >
Hang On To Yourself

Hang On To Yourself Bass Tabs

Bowie David - Hang On To Yourself chords, tabs, tablatures, lyrics

Guitar lessons | Add/correct | Request | Top 50 tabs Artists:  A B C D E F G H I J K L M N O P Q R S T U V W X Y Z 0-9

Hang On To Yourself Bass Tabs – Bowie David

CD, Sheet music, Poster

Do you like Hang On To Yourself? Share with your friends now
Bass Tabs
INTRO
|-------|------------------|---------------|------------------|----------|
|-------|-4h5-5-5--4h5-5-4h|5-5--5---------|-4h5-5-5--4h5-5-4h|5-5-5-5--5|
|-5--3--|------------------|---------5---3-|------------------|----------|
|-------|------------------|---------------|------------------|----------|

VERSE
|------------------|-----9--------7-6-|-4-----4~~~--4---4-|------2------|
|-4-----4~~~---4-5-|-7-----7~~--7-----|-----4-------------|--4----------|
|-----4------------|------------------|-------------------|-------------|
|------------------|------------------|-------------------|-------------|
                                    [00:14]
|-3h4-4-4--3h4-4-3h|4-4-4-4--4------|--------------------|---------------|
|------------------|-------------2/-|-4-------4~~~-4-4-6-|-7----7~~-7-7-8|
|------------------|----------------|-----4--------------|----7----------|
|------------------|----------------|--------------------|---------------|

|----------------|------|------------------|-----------|
|-9---7-9~~-9--9-|----7-|-8h9-9-9--8h9-9-8h|9-9-9---9--|
|----------------|-9----|------------------|-----------|
|----------------|------|------------------|-----------|

CHORUS
|-----------------|----------2-2-0---|------------------|----2----2-2-0--|
|------2~~~-2-4-5-|-0-0-4-4--------2-|-----2-2--3-3-4-5-|0-0---0--------2|
|3-3-3------------|------------------|-3-3--------------|----------------|
|-----------------|------------------|------------------|----------------|

|------------------|----------2-2-0--|------------------|2-2-2-2--2-2-2-2|
|-----2-2--5-5-2-2-|-0-0-4-4--------2|-----2-2--5-5-3-3-|----------------|
|-3-3--------------|-----------------|-3-3--------------|----------------|
|------------------|-----------------|------------------|----------------|


SOLO
|-------6~~7-8-9-|-----6-6--9-9-7-6-|----------2-2-0---|---2-0----2-2-0--|
|-7-7-7----------|-7-7--------------|-0-0-4-4--------4-|-0-----4--------4|
|----------------|------------------|------------------|-----------------|
|----------------|------------------|------------------|-----------------|

|-----6-6--7-7-8-9-|----6-6--9-9-7-6-|-----------------|-----------------|
|-7-7--------------|7-7--------------|0-0--------------|0-0--------------|
|------------------|-----------------|----3-3--2-2-1-1-|----3-3--2-2-0-2-|
|------------------|-----------------|-----------------|-----------------|

|------------------|
|-0-0--------------|
|-----3-3--2-2-1-1-|
|------------------|

OUTRO 							              x6 & half :)

|-2-2-2-2--2-2-2-2|-2-2-2-2--2-2-2-2-|----7-7--7-7-7-7-|7-7-7-7--7-7-7-7-|
|.----------------|------------------|0-0--------------|----------------.|
|.----------------|------------------|-----------------|----------------.|
|-----------------|------------------|-----------------|-----------------|

INTRO RIFF
VERSE      [00:07]
CHORUS     [00:22]

INTRO RIFF [00:33]
VERSE      [00:39]
CHORUS     [00:54]

INTRO RIFF [01:04]
SOLO       [01:11]
CHORUS     [01:20]

INTRO RIFF [01:31]
CHORUS     [01:37]

INTRO RIFF [01:48]
SOLO       [01:54]

OUTRO      [02:05]





Comments


Popular Bowie David tabs & chords
Panic In Detroit Chords
Rock N Roll Suicide Chords
Ashes To Ashes Tabs
Breaking Glass Tabs
Conversation Piece Tabs
Hang On To Your Self Tabs
Queen Bitch Tabs
Running Gun Blues Tabs
Width Of A Circle Tabs
Wild Eyed Boy From Freecloud Tabs


Song lyrics



↑ Back to top | Tablatures and chords are parodies/interpretations of the original songs. You may use it for private study, scholarship, research or language learning purposes only
© 2014 AZChords.com Contact us | Privacy policy | DMCA | Add/correct tabs | Request tabs | Top 50 tabs