» » »

Bottle Rockets, Sunday Sports Tabs (ver.1)

Artists:  A B C D E F G H I J K L M N O P Q R S T U V W X Y Z # 

Sunday Sports Tabs (ver.1)

Bottle Rockets Tabs
Rating:
5/5 (1 vote)
Sunday Sports lessons Tabs too difficult? Try these video lessons and learn fast
                -------------------------------------------------------------------------------
-------------------------------------------------------------------------------

Tuning: Standard

This is truly a rockin' song.

  Main Riff (verse and intro) - Rhythm Guitar:
e|------------------------------------------0-0--0---------------------------|
B|---------1--1-1--0-0--0-----------1--1-1--0-0--0---------------------------|
G|---------2--2-2--0-0--0-----------2--2-2--0-0--0---------------------------|
D|---------2--2-2--0-0--0-----------2--2-2--0-0--0---------------------------|
A|--3-2-0--0--0-0--2-2--2--2-3-2-0--0--0-0--2-2--2---------------------------|
E|-----------------0-0--0-------------------0-0--0---------------------------|

  Main Riff (Play before each verse) - Lead Guitar:
e|---------------------------------------------------------------------------|
B|---------------------------------------------------------------------------|
G|--7/9--7--5-----7-5-4-----------4-5-4--------------------------------------|
D|-------------7--------5\2-5--7--------5-5----------------------------------|
A|---------------------------------------------------------------------------|
E|---------------------------------------------------------------------------|
  (continued)
e|---------------------------------------------------------------------------|
B|----------8-8--------------------------------------------------------------|
G|--7/9-9-9-----9-9--9-7-9-7-5-4------------4-5-4----------------------------|
D|-------------------------------5--2-5--7--------5-5~~----------------------|
A|---------------------------------------------------------------------------|
E|---------------------------------------------------------------------------|
  
  Chorus: Am G F Em

  Ending: Wallop out that very last chord in the main riff (rhythm guitar),
  Then for the crazy end:
e|--0=------0=---5==-5------0=-----------------------------------------------|
B|----3=----3=------5-5-------3h5p3------------------------------------------|
G|------0===0=----------5=----------0==--------------------------------------|
D|---------------------------------------------------------------------------|
A|---------------------------------------------------------------------------|
E|---------------------------------------------------------------------------|
  Improvise using this as a basis; play over and over behind the drum solo.

  Lead kicks in for a little:
e|--12=--12=-----------------------------------------------------------------|
B|--15b--15br--12-------12-------12------------------------------------------|
G|-------------12-------12-------12-------12---------------------------------|
D|----------------14-12----14-12----------12---------------------------------|
A|----------------------------------14-12----12h14p12-14=--------------------|
E|----------------------------------------------------12=--------------------|

  After the thunderous drum solo, end by randomly pick-scr*ping on the 
  heavier gauge strings. 
           
  Enjoy. :)

| =  let ring
| /  slide up
| \  slide down
| h  hammer-on
| p  pull-off
| b  bend
| r  release
| ~  vibrato
===============================================================================
            

comments powered by Disqus
↑ Back to top | Bottle Rockets Tabs for Sunday Sports. Lyrics for acoustic guitar and electric guitar. Tablatures and chords are parodies/interpretations of the original songs. You may use it for private study, scholarship, research or language learning purposes only