» » »

Boston, Piece Of Mind Tabs (ver.1)

Artists:  A B C D E F G H I J K L M N O P Q R S T U V W X Y Z # 

Piece Of Mind Tabs (ver.1)

Boston Tabs
Rating:
0/5 (0 votes)
Hard to play? Try these video lessons and learn fast.
                Peace of Mind

Boston



Intro (Guitar 1 - Acoustic) :
    C#m    A              E      B
e--------------------------------------------|
b---5--5------------------9--9---------------|
g---6--6---6---x-x-x-x-x--9--9---8---x-x-x-x-|
d---6--6---7---x-x-x-x-x--9--9---9---x-x-x-x-|
a---4--4---7---x-x-x-x-x--7--7---9---x-x-x-x-|
e----------5---------------------7-----------|

Solo on Chords : (Guitar 2 - Dist. Electric)
e-----------|-----------------------------------------------------|
b-----------|-----------------------------------------------------|
g-----------|o----------------------------------------------------|
d---6--4----|o----------------------------------------------------|
a---------7-|--4vvvvvvv--6--/7v--/9---\6vvvvvv--7--6--------------|
e-----------|-----------------------------------------7--9vvvvvvv-|

				         ___1____ ____2____
e---------------------------------------|--------|---------|
b------------------------------------------------|---------|
g-----------------------------------------------o|---------|
d-----------------------------------------------o|---14vvv-|
a--7--9--/11---12--9vvvvv--11--9h11p9--7--\4-----|---14vvv-|
e------------------------------------------------|---12vvv-|

Verse Intro :
e|------------------------|-------------------------|
b|----------9------10p9---|---9--9---7--7-----------|
g|o--9--9---9---9--9vvv--o|-----------------9---\6--|
d|o--9--9---9---9--9vvv--o|---6--6---4--4-----------|
a|---7--7-------7--7vvv---|-----------------7---\4--|
e|------------------------|-------------------------|

Verse :
e--------------------------------------------------|
b----------10p9-------10p9p9-----------------------|
g---9--9---9-(-)---9-------------------------------|
d---9--9---9-(-)---9-----------12--12--11--11---2--|
a---7--7-----------7-----------12--12--11--11---2--|
e------------------------------10--10--9---9----0--|

Chorus
e----------------------------------------|
b----------------------------------------|
g--13--13--13--14v--14---14--14----------|
d--13--13--13--14v--14---14--14----9--9--|
a--11--11--11--12v--12---14--14----9--9--|
e------------------------12--12----7--7--|
  I understand...

Bridge :
e-----------------------------------------|
b-----------------------------------------|
g--4--4---4---4---4------------------6----|
d--4--4---4---4---4---------7vvv--7--6----|
a--2--2---2---2---2---------7vvv--7--4----|
e---------------------2--4--5vvv--5-----5-|
 (Take a look around.....)
            

comments powered by Disqus
↑ Back to top | Boston Tabs for Piece Of Mind. Lyrics for acoustic guitar and electric guitar. Tablatures and chords are parodies/interpretations of the original songs. You may use it for private study, scholarship, research or language learning purposes only