>
 >
Peace Of Mind

Peace Of Mind Bass Tabs

Boston - Peace Of Mind chords, tabs, tablatures, lyrics

Guitar lessons | Add/correct | Request | Top 50 tabs Artists:  A B C D E F G H I J K L M N O P Q R S T U V W X Y Z 0-9

Peace Of Mind Bass Tabs – Boston

CD, Sheet music, Poster

Do you like Peace Of Mind? Share with your friends now
Bass TabsBass Tabs v2ChordsChords v2TabsTabs v2Tabs v3Tabs v4Tabs v5
Peace Of Mind.btab
Boston

Basstab by Jan Bjorklund, Finland; 
You are welcome to request for basstabs or standard notation!
Bienvenidos a pedirme transcripciones para el bajo!

Tuning : E A D G 	Time Signature: 4/4

 tempo 128       |       |        |       |       |       |        
|--------------------------------|--------------------------------|
|----------------       Intro without bass      ------------------|
|--------------------------------|--------------------------------|
|--------------------------------|--------------------------------|

 |       |       |       |        |       |       |       |        
|--------------------------------|--------------------------------|
|--------------------------------|--------------------6---4-------|
|--------------------------------|----------------------------7---|
|--------------------------------|--------------------------------|

 |       |       |       |        |       |       |       |        
|--------------------------------|--------------------------------|
|--------------------------------|--------------------6-----------|
|4---4---7-----------4-------6---|7---7---9---------------9/--7---|
|------------5-------------------|------------7-------------------|

 |       |       |       |        |       |       |       |        
|--------------------------------|--------------------------------|
|--------------------------------|--------------------------------|
|4---4---7-----------------------|--------------------6---7-7-----|
|------------5-------5---4---2---|0---0---4---7---------------7---|

 |       |       |       |        |       |       |       |        
|--------------------------------|--------------------------------|
|--------------------------------|--------------------6-----------|
|4-------7-----------4-------6---|7---7---9---------------9/--7---|
|------------5-------------------|------------7-------------------|

 |       |       |       |        |       |       |       |        
|--------------------------------|--------------------------------|
|--------------------------------|--------------------------------|
|4-------7---------------4---6---|7---7---9-----------11--9-119---|
|------------5-------5-----------|------------7-------------------|

 |       |       |       |        |       |       |       |        
|--------------------------------|--------------------------------|
|--------------------------------|--------------------------------|
|7---7---7---7---7---4-------7---|7---7---4---4-------------------|
|------------------------7-------|----------------7---7---4---0---|

 |       |       |       |        |       |       |       |        
|--------------------------------|--------------------------------|
|--------------------------------|----------------6---6-----------|
|----------------------------7---|----7---7---7-----------7-7-4---|
|0---0---4---4-4-5---5---7-------|--------------------------------|

 |       |       |       |        |       |       |       |        
|--------------------------------|--------------------------------|
|--------------------------------|--------------------------------|
|7---7---7---7---4---4-------7---|----7---4---4-----------4-------|
|------------------------7-------|----------------7---7-------0---|

 |       |       |       |        |       |       |       |        
|--------------------------------|--------------------------------|
|--------------------------------|--------------------------------|
|5-------5-----5---------4---7---|7---7---4---4---7p4---------4---|
|----------------5---5-----------|--------------------5---7-------|

 |       |       |       |        |       |       |       |        
|--------------------------------|--------------------------------|
|----------------9---------------|--------------------------------|
|7---7---7---7-----7-----4---7---|7---7---7---7---4---4-------4---|
|--------------------7-----------|------------------------7-------|

 |       |       |       |        |       |       |       |        
|--------------------------------|--------------------------------|
|--------------------------------|--------------------------------|
|5---5---5---7-5-----------------|------------------------6---7-7-|
|----------------5---5---0---7---|7---7---7---7---7---7-----------|

 |       |       |       |        |       |       |       |        
|--------------------------------|--------------------------------|
|9---9---7---7---6---6---4-------|--------------------------------|
|----------------------------7---|4-------7-------------------6---|
|--------------------------------|------------5-------5---7-------|

 |       |       |       |        |       |       |       |        
|--------------------------------|--------------------------------|
|--------------------6-----------|--------------------------------|
|7---7---9---------------9---7---|4---4---7-----------------------|
|------------7-------------------|------------5-------4-------2---|

 |       |       |       |        |       |       |       |        
|--------------------------------|--------------------------------|
|--------------------------------|--------------------------------|
|--------------------6---4-4-----|4---4---7-----------4-------6---|
|0-------4---7---------------7---|------------5-------------------|

 |       |       |       |        |       |       |       |        
|--------------------------------|--------------------------------|
|--------4-----------6---4-------|--------------------------------|
|7-------------------------------|4---4---7---------------4---6---|
|------------7-------------------|------------5-------5-----------|

 |       |       |       |        |       |       |       |        
|--------------------------------|--------------------------------|
|--------4-----------------------|--------------------------------|
|7---7---------------7---6-------|--------------------------------|
|------------7---------------7---|5-------------------------------|

 |       |       |       |        |       |       |       |        
|--------------------------------|--------------------------------|
|--------------------------------|--------------------------------|
|--------------------------------|7---7---7---7---4---4-------7---|
|(5)-----------------------------|------------------------7-------|

 |       |       |       |        |       |       |       |        
|--------------------------------|--------------------------------|
|--------------------------------|--------------------------------|
|----7---4---4-------------------|--------7---7---4-------4---7---|
|----------------7---7---5---4---|0---0---------------7-----------|

 |       |       |       |        |       |       |       |        
|--------------------------------|--------------------------------|
|----------------6h7p6-----------|--------------------------------|
|7---7---7---7-----------9p7-----|7---7---7---7---4-------4---7---|
|----------------------------9---|--------------------7-----------|

 |       |       |       |        |       |       |       |        
|--------------------------------|--------------------------------|
|--------------------------------|--------------------------------|
|7---7---4---4-----------4-------|5---5---5---7-5---------4---7---|
|----------------7---7-------7---|----------------5---5-----------|

 |       |       |       |        |       |       |       |        
|--------------------------------|--------------------------------|
|--------------------------------|--------------------------------|
|7---7---4---4---4-4---------4---|7---7---7---7---4-4-----4---7---|
|--------------------4---7-------|--------------------7-----------|

 |       |       |       |        |       |       |       |        
|--------------------------------|--------------------------------|
|--------------------------------|--------------------------------|
|7---7---7---7-------------------|5---5---5---5-------------------|
|----------------4---4---5---7---|----------------5---5---0---7---|

 |       |       |       |        |       |       |       |        
|--------------------------------|--------------------------------|
|--------------------------------|9---9---7-7-7---6-6-6-----------|
|--------6---6---6---7-7-8-------|------------------------9---7---|
|7---7---------------------------|--------------------------------|

 |       |       |       |        |       |       |       |        
|--------------------------------|--------------------------------|
|--------------------------------|--------------------6-----------|
|4-------7-------------------4---|7---7---9---------------9-------|
|------------5-------5---7-------|------------7-------------------|

 |       |       |       |        |       |       |       |        
|--------------------------------|--------------------------------|
|----------------       and   so   on .......---------------------|
|--------------------------------|--------------------------------|
|--------------------------------|--------------------------------|





Comments


Popular Boston tabs & chords
Amanda 2 Chords
More Than A Feeling Chords
Peace Of Mind 1 Chords
Cool The Engines Intro 1 Tabs
Don't Look Back 1 Tabs
More Than A Feeling 2 Tabs
More Than A Feeling Intro Tabs
Peace Of Mind (Intro) Tabs
Tell Me Ukulele
To Be A Man Ukulele


Song lyrics



↑ Back to top | Tablatures and chords are parodies/interpretations of the original songs. You may use it for private study, scholarship, research or language learning purposes only
© 2014 AZChords.com Contact us | Privacy policy | DMCA | Add/correct tabs | Request tabs | Top 50 tabs