>
 >
Party

Party Guitar Tabs

Boston - Party chords, tabs, tablatures, lyrics

Guitar lessons | Add/correct | Request | Top 50 tabs Artists:  A B C D E F G H I J K L M N O P Q R S T U V W X Y Z 0-9

Party Guitar Tabs – Boston

CD, Sheet music, Poster

Do you like Party? Share with your friends now
Tabs
Since no one wants to upload a text file of the tab, I will.
It's been extracted directly from the power tab and i'd say it's pretty damn good. 

 Intro
  Moderate Q=100
  E/A
 4/4
  Gtr I
                                     |-3--|
   E E E E  E  E  E E   E E E E E  E S  S S E
|---------------------|-----------------------|
|--------9------------|-------9---10-9h10p9---|
|------9----9-----9---|-----9---9-----------9s|
|----9---------9----9-|---9-------------------|
|--0------------------|-0---------------------|
|---------------------|-----------------------|
|
| Gtr II
|                                    |-3--|
|  H       +E  Q.       E E E E E  E S  S S E
|---------------------|-----------------------|
|-^9-------(9)-9------|-------9---10-9h10p9---|
|-^9-------(9)--------|-----9---9-----------9s|
|-^9-------(9)--------|---9-------------------|
|-^0-------(0)--------|-0---------------------|
|---------------------|-----------------------|


  D/A               Dmaj7
  E E E E E E E E   E E E E E  E E      +E
|-----------------|-9------------------------|
|-------7---------|---7-----7----------------|
|-7---7---7---7---|-----7--------7------(7)s=|
|---7-------7---7-|-------7----7-------------|
|-0---------------|--------------------------|
|-----------------|--------------------------|
|
|                                |-3--|
| E E E E E E E E   E E E E E  E S  S S  E
|-----------------|-9---------10-9h10p9------|
|-------7---------|---7-----7------------7---|
|-7---7---7---7---|-----7--------------------|
|---7-------7---7-|-------7------------------|
|-0---------------|--------------------------|
|-----------------|--------------------------|


                                                   H.=H          Q=60  Q=138
  Am7                                          Am13                    A5
                                                                2/4
                                                                       Gtr III
                            |-3-|
   E  E E E E E E E   E E E S S S E E E    E   E E E E E E E E   +Q.   E
|---------------5---|-7---8-7h8p7------------|---------0-------|----------||
|---------5---------|---5---------8----------|-------3---3-----|----------||
|--5----5---5-----5-|---------------5--------|-----0---------0-|-(0)---2--||
|-----5-------5-----|----------------------5-|---4---------4---|-------2--||
|--0----------------|-----------------0------|-0---------------|-------0--||
|-------------------|------------------------|-----------------|----------||
|
|                           |-3-|
|  E  E E E E E E E   E E E S S S E E S E.     E E E E E E E E   +Q.   E
|---------------5---|-7---8-7h8p7-0-0-2p0----|---------0-------|----------||
|---------5---------|---5--------------------|-------3---3-----|----------||
|-(5)---5---5-----5-|------------------------|-----0---------0-|-(0)------||
|-----5-------5-----|------------------------|---4---------4---|----------||
|-------------------|------------------------|-0---------------|----------||
|-------------------|------------------------|-----------------|----------||


  Medium Rock Q=138
 4/4
  +E  E E E a E E E E   +E  E E   E E E E   E
|---------------------|-----------------------|
|---------------------|-----------------------|
|-(2)-2-2-2-----2-----|---------------------2-|
|-(2)-2-4-2-----2-2-2-|-(2)-----------2-----2-|
|-(0)-0-0-0-3s4---0-0-|-(0)-----------0-3b4-0-|
|---------------------|-----0-2b3-0-3---------|


                    G6          Dsus4     A5
  +E  E E E a E E E E   +E  E E E +E  E E E
|-------------------0-|-(0)-0---3-(3)-3-----|
|-------------------3-|-(3)-3---3-(3)-3-----|
|-(2)-2-2-2-----2---0-|-(0)-0---2-(2)-2---2-|
|-(2)-2-4-2-----2-2---|---------4-(4)-4---2-|
|-(0)-0-0-0-3s4---0---|-------------------0-|
|---------------------|---------------------|


  +E  E E E a E E E E   +E  E E   E E E E   E
|---------------------|-----------------------|
|---------------------|-----------------------|
|-(2)-2-2-2-----2-----|---------------------2-|
|-(2)-2-4-2-----2-2-2-|-(2)-----------2-----2-|
|-(0)-0-0-0-3s4---0-0-|-(0)-----------0-3b4-0-|
|---------------------|-----0-2b3-0-3---------|


                    G6          Dsus4     A5
  +E  E E E a E E E E   +E  E E E +E  E E E
|-------------------0-|-(0)-0---3-(3)-3------|
|-------------------3-|-(3)-3---3-(3)-3------|
|-(2)-2-2-2-----2---0-|-(0)-0---2-(2)-2---2--|
|-(2)-2-4-2-----2-2---|---------4-(4)-4---2--|
|-(0)-0-0-0-3s4---0---|-------------------0--|
|---------------------|----------------------|


 Verse 1
  +E  E E E a E E E E   +E  E E   E E E E   E
|---------------------|-----------------------|
|---------------------|-----------------------|
|-(2)-2-2-2-----2-----|---------------------2-|
|-(2)-2-4-2-----2-2-2-|-(2)-----------2-----2-|
|-(0)-0-0-0-3s4---0-0-|-(0)-----------0-3b4-0-|
|---------------------|-----0-2b3-0-3---------|


                    G6          Dsus4     A5
  +E  E E E a E E E E   +E  E E E +E  E E E
|-------------------0-|-(0)-0---3-(3)-3------|
|-------------------3-|-(3)-3---3-(3)-3------|
|-(2)-2-2-2-----2---0-|-(0)-0---2-(2)-2---2--|
|-(2)-2-4-2-----2-2---|---------4-(4)-4---2--|
|-(0)-0-0-0-3s4---0---|-------------------0--|
|---------------------|----------------------|


  +E  E E E a E E E E   +E  E E   E E E E   E
|---------------------|-----------------------|
|---------------------|-----------------------|
|-(2)-2-2-2-----2-----|---------------------2-|
|-(2)-2-4-2-----2-2-2-|-(2)-----------2-----2-|
|-(0)-0-0-0-3s4---0-0-|-(0)-----------0-3b4-0-|
|---------------------|-----0-2b3-0-3---------|


                    G6          Dsus4     E5
  +E  E E E a E E E E   +E  E E E +E  E E E
|-------------------0-|-(0)-0---3-(3)-3------|
|-------------------3-|-(3)-3---3-(3)-3------|
|-(2)-2-2-2-----2---0-|-(0)-0---2-(2)-2------|
|-(2)-2-4-2-----2-2---|---------4-(4)-4---2--|
|-(0)-0-0-0-3s4---0---|-------------------2--|
|---------------------|-------------------0--|


 Pre-Chorus
  $$
        E6  E5  E6    E7  E6  E5    E6   A     G5/D  D5              G D F#m
  +E  E E E E E E E   E E E E S S E Q    Q  Q  E E E E   +E  E S S E E E E E
|-------------------|------------------|---------------|----------------------|
|-------------------|------------------|-5--5----------|-------------8-7------|
|-------------------|------------------|-6--6--7-7-7-7-|-(7)-7-------7-7------|
|-(2)---------------|------------------|-7--7--5-5-5-7-|-(7)-7-----7-9-7-7----|
|-(2)-2-4-4-2-2-4-4-|-5-5-4-4-2-2-2-4--|-7--7--5-5-5-5-|-(5)-5-7s9-------9-0--|
|-(0)-0-0-0-0-0-0-0-|-0-0-0-0-0-0-0-0--|-5--5----------|----------------------|


  $
  A5 A6 A5 A6E5        E6  E5 E6    C5                D5C#D5C#D5C#A5
                                                                    Gtrs III, IV
                                    PM------------|
  Q  Q  Q  E E   +E  E  Q  Q   Q    E E E E E E E E   E E E E E E E E
|--------------|------------------|-----------------|------------------|
|--------------|------------------|-----------------|------------------|
|--------------|------------------|-5-5-5-5-5-5-5-5-|-7s6-7s6-7s6------|
|------------9-|-(9)-9-11--9--11--|-5-5-5-5-5-5-5-5-|-7s6-7s6-7s6-7-7--|
|-7--9--7--9-7-|-(7)-7--7--7---7--|-3-3-3-3-3-3-3-3-|-5s4-5s4-5s4-7-7--|
|-5--5--5--5---|------------------|-----------------|-------------5-5--|


 Chorus
      Gtr III
  +E  E a     +E  +E  E  E E E   +Q   E  E  +Q   E E
|------------------------------|---------------------|
|------------------------------|---------------------|
|------------------------------|-----------------7---|
|-(7)-7-9b10==(9)r(9)-7------7-|-(7)--9-10-(10)----7-|
|-(7)-7-----------------10-7---|---------------------|
|-(5)-5------------------------|---------------------|
|
|     Gtr IV
|  E  E a     +E  +E  E  E E E   +Q   E  E  +Q   E E
|------------------------------|---------------------|
|------------------------------|---------------------|
|------------------------------|---------------------|
|-----7-9b10==(9)r(9)-7--------|-----------------7---|
|-----7-----------------10-7-7-|-(7)--9-10-(10)----7-|
|-----5------------------------|---------------------|


                                      G5F#G5F#5 A5
  +Q   a     +E  +E  E  E E E   +E  E E E E E E E
|-----------------------------|--------------------|
|-----------------------------|--------------------|
|-----------------------------|--------------------|
|-(7)--9b10==(9)r(9)-7----7-7-|-(7)---5-4-5-4---7--|
|----------------------10-7-7-|-(7)---5-4-5-4---7--|
|-----------------------------|-----0-3-2-3-2-0-5--|
|
| +Q   a     +E  +E  E  E E E   +E  E E E E E E E
|-----------------------------|--------------------|
|-----------------------------|--------------------|
|-----------------------------|--------------------|
|-----------------------------|-------5-4-5-4---7--|
|-(7)--9b10==(9)r(9)-7--------|-------5-4-5-4---7--|
|-----------------------8-5-5-|-(5)-0-3-2-3-2-0-5--|


  +E  E a     +E  +E  E  E E E
|------------------------------|
|------------------------------|
|-------7b9===(7)r(7)-5--4---5-|
|-(7)-7--------------------7---|
|-(7)-7------------------------|
|-(5)-5------------------------|
|
| +E  E a     +E  +E  E  E E E
|------------------------------|
|------------------------------|
|------------------------------|
|-(7)-7-9b10==(9)r(9)-7------7-|
|-(7)-7-----------------10-7---|
|-(5)-5------------------------|


  +Q   E  E  +E  a    +E  +E  E   +E  E a     +E  +E  E E E E
|-------------------------------|------------------------------|
|---------5--(5)-7b8==(7)r(7)---|------------------------------|
|-(5)--7----------------------7-|-(7)-7-7b9===(7)r(7)-5-4------|
|-------------------------------|-------------------------7-7--|
|-------------------------------|---------------------------7--|
|-------------------------------|---------------------------5--|
|
| +Q   E  E  +E  a    +E  +E  E   +E  E a     +E  +E  E E E E
|-------------------------------|------------------------------|
|-------------------------------|------------------------------|
|----------------7b9==(7)r(7)---|------------------------------|
|-(7)--9-10-(10)--------------7-|-(7)-7---------------------7--|
|-------------------------------|-------9b10==(9)r(9)-7-5---7--|
|-------------------------------|-------------------------5-5--|


                           To Coda
                           To Coda
        DsD54       G5                         F#G5    A5
  Gtrs III, IV
  +E  E E E +E  E E E   +E  E +H.        E E E E E E E E
|---------------------|----------------|-----------------||
|---------------------|----------------|-----------------||
|---------7-(7)-7-----|----------------|---------------2-||
|-(7)-7-5-7-(7)-7---5-|-(5)-5-(5)------|---5-5-4-5-----2-||
|-(7)-7-5-5-(5)-5---5-|-(5)-5-(5)------|---5-5-4-5-----0-||
|-(5)-5-5-----------3-|-(3)-3-(3)------|---3-3-2-3-2-0---||


 Verse 2
  +E  E E E a E E E E   +E  E E   E E E E   E
|---------------------|-----------------------|
|---------------------|-----------------------|
|-(2)-2-2-2-----2-----|---------------------2-|
|-(2)-2-4-2-----2-2-2-|-(2)-----------2-----2-|
|-(0)-0-0-0-3s4---0-0-|-(0)-----------0-3b4-0-|
|---------------------|-----0-2b3-0-3---------|


                    G6          Dsus4     A5
  +E  E E E a E E E E   +E  E E E +E  E E E
|-------------------0-|-(0)-0---3-(3)-3------|
|-------------------3-|-(3)-3---3-(3)-3------|
|-(2)-2-2-2-----2---0-|-(0)-0---2-(2)-2---2--|
|-(2)-2-4-2-----2-2---|---------4-(4)-4---2--|
|-(0)-0-0-0-3s4---0---|-------------------0--|
|---------------------|----------------------|


  +E  E E E a E E E E   +E  E E   E E E E   E
|---------------------|-----------------------|
|---------------------|-----------------------|
|-(2)-2-2-2-----2-----|---------------------2-|
|-(2)-2-4-2-----2-2-2-|-(2)-----------2-----2-|
|-(0)-0-0-0-3s4---0-0-|-(0)-----------0-3b4-0-|
|---------------------|-----0-2b3-0-3---------|


                    G6          Dsus4     E5
  +E  E E E a E E E E   +E  E E E +E  E E E
|-------------------0-|-(0)-0---3-(3)-3------||
|-------------------3-|-(3)-3---3-(3)-3------||
|-(2)-2-2-2-----2---0-|-(0)-0---2-(2)-2------||
|-(2)-2-4-2-----2-2---|---------4-(4)-4---2--||
|-(0)-0-0-0-3s4---0---|-------------------2--||
|---------------------|-------------------0--||


 Pre-Chorus
                                                               D.S. al Coda
        E6  E5  E6    E7  E6  E5    E6   A     G5/D  D5              G D F#m
  +E  E E E E E E E   E E E E S S E Q    Q  Q  E E E E   +E  E S S E E E E E
|-------------------|------------------|---------------|----------------------|
|-------------------|------------------|-5--5----------|-------------8-7------|
|-------------------|------------------|-6--6--7-7-7-7-|-(7)-7-------7-7------|
|-(2)---------------|------------------|-7--7--5-5-5-7-|-(7)-7-----7-9-7-7----|
|-(2)-2-4-4-2-2-4-4-|-5-5-4-4-2-2-2-4--|-7--7--5-5-5-5-|-(5)-5-7s9-------9-0--|
|-(0)-0-0-0-0-0-0-0-|-0-0-0-0-0-0-0-0--|-5--5----------|----------------------|


  &
  G5               E5
  Gtrs III, IV
   H.         Q    W                      +W
|----------------|----------------------|------------------------------||
|----------------|----------------------|------------------------------||
|----------------|----------------------|------------------------------||
|-(5)---------5--|-9--------------------|-(9)--------------------------||
|-(5)---------5--|-7--------------------|-(7)--------------------------||
|-(3)---------3--|----------------------|------------------------------||
|
| Gtr V
|                                          ~~~~~
|  Q   E E Q  Q    Q  E S S E E    +Q      Q.     e    e    e    S S E
|--------xsxs=x--|----------------------|------------------------------||
|--------xsxs=x--|----------------------|------------------------8-----||
|----------------|------x-x-7-7b9==(7)--|--7pb9---7pb9-7pb9-7pb9---7r7-||
|----------------|----------------------|------------------------------||
|----------------|----------------------|------------------------------||
|----------------|----------------------|------------------------------||


 Guitar Solo
  A5
  Gtr III
  E E  E      E a E E  E  E   +E    E  E   E E E E   E
|---------------------------|--------------------------|
|---------------------------|--------------------------|
|-2-2--2------2-----2-------|------------------------2-|
|-2-2--4------2-----2--2--2-|-(2)--------------2-----2-|
|-0-0--0------0-3s4----0--0-|-(0)--------------0-3b4-0-|
|---------------------------|-------0--2b3-0-3---------|
|
| Gtr V
|                                      ~~~~
| Q   +Q          Q   +E  E    S  S E +H         E   E
|---------------------------|-------5-(5)------------9-|
|---------------------------|--------------------7-----|
|-5---(5)b5.5-------------7-|--5--6--------------------|
|-----------------7---(7)---|--------------------------|
|---------------------------|--------------------------|
|---------------------------|--------------------------|
|
| Gtr IV
|                                      ~~~~
| Q   +Q          Q   +E  E    S  S E +H         E   E
|---------------------------|-------5-(5)------------9-|
|---------------------------|--------------------7-----|
|-5---(5)b5.5-------------7-|--5--6--------------------|
|-----------------7---(7)---|--------------------------|
|---------------------------|--------------------------|
|---------------------------|--------------------------|


                                         G6
  +E    E    E     E    a  E     E     E  E
|-----------------------------------------0------|
|-----------------------------------------3------|
|-(2)---2----2-----2-------------2--------0------|
|-(2)---2----4-----2-------------2-----2---------|
|-(0)---0----0-----0----3s=4-----------0---------|
|------------------------------------------------|
|
|  S S  S  S S  S  S  S    S  S  S  S  E  E
|-10-9----10-9----10--9--------------------------|
|------10------10---------12-10-------10-12b13===|
|-------------------------------11--9------------|
|------------------------------------------------|
|------------------------------------------------|
|------------------------------------------------|
|
|  S S  S  S S  S  S  S    S  S  S  S  E  E
|-10p9----10p9----14-12--------------------------|
|------10------10---------14-12----------15b17===|
|-------------------------------14-11-14---------|
|------------------------------------------------|
|------------------------------------------------|
|------------------------------------------------|


               Dsus4                    A5
   +E    E   E  E      +E       E     E E    E  E E E a E E     E   E
|--(0)---0------3------(3)------3---------|----------------------------|
|--(3)---3------3------(3)------3---------|----------------------------|
|--(0)---0------2------(2)------2-------2-|--2--2-2-2-----2------------|
|---------------4------(4)------4-------2-|--2--2-4-2-----2-----2---2--|
|---------------------------------------0-|--0--0-0-0-3s4-------0---0--|
|-----------------------------------------|----------------------------|
|
|               ~~~~~~~~~~~~~~
|  +E   +E   E  E      +Q             E E   +H          E E    +E  +E
|--------------13b14==(13)r---------------|----------------------------|
|-(12)r(12)-10----------------------------|----------------------------|
|-----------------------------------------|---------------7b9==(7)r(7)-|
|---------------------------------------7-|-(7)---------4--------------|
|-----------------------------------------|----------------------------|
|-----------------------------------------|----------------------------|
|
|                       \0.5/   \0.5/
|  +E   +E   E  E      +E      +E     E E   +H          E E    +E  +E
|--------------21b22==(21)----(21)r-------|----------------------------|
|-(15)r(15)-14----------------------------|----------------------------|
|-----------------------------------------|---------------7b9==(7)r(7)-|
|---------------------------------------7-|-(7)---------4--------------|
|-----------------------------------------|----------------------------|
|-----------------------------------------|----------------------------|


                                                        G6
  +E    E E   E  E     E E   E   +E  E E E a E   E E    E
|------------------------------|------------------------0-----|
|------------------------------|------------------------3-----|
|----------------------------2-|-(2)-2-2-2-------2------0-----|
|-(2)------------------2-----2-|-(2)-2-4-2-------2-2----------|
|-(0)------------------0-3b4-0-|-(0)-0-0-0-3s4-----0----------|
|-------0-2b3-0--3-------------|------------------------------|
|
|  \3____________/
|  H            +H               +H          Q     E    E
|------------------------------|------------------------------|
|------------------------------|------------------------------|
|--5tr0---------(5tr0)---------|-(5)---------4b6---4pb6-4b6===|
|------------------------------|------------------------------|
|------------------------------|------------------------------|
|------------------------------|------------------------------|
|
|  \3____________/
|  H            +H               +H          Q     E    E
|------------------------------|------------------------------|
|------------------------------|------------------------------|
|--5tr0---------(5tr0)---------|-(5)---------4b6---4pb6-4b6===|
|------------------------------|------------------------------|
|------------------------------|------------------------------|
|------------------------------|------------------------------|


            Dsus4         E5          E6E5    E6F5
  +E   E  E E    +E   E E E    E  E   E E E E E E
|-(0)--0----3----(3)--3-----|---------------------|
|-(3)--3----3----(3)--3-----|---------------------|
|-(0)--0----2----(2)--2-----|---------------------|
|-----------4----(4)--4---2-|---------------------|
|-------------------------2-|--2--2---4-2-2-2-4-3-|
|-------------------------0-|--0--0---0-0-0-0-0-1-|
|
|           ~~~~~~~~~~
| +E  +E  E E    +Q.      E   +E  E a E E E E E E
|---------------------------|---------------------|
|-----------5b7==(5)r-------|---------------------|
|-(4)r(4)-2-----------------|---------------------|
|---------------------------|---------------------|
|-------------------------2-|-(2)-2-1s2p0---------|
|-------------------------0-|-(0)-0-------4-2-0-1-|
|
|           ~~~~~~~~~~
| +E  +E  E E    +Q.      E    E  E a E E E E E E
|---------------------------|---------------------|
|-----------5b7==(5)r-------|---------------------|
|-(4)r(4)-2-----------------|---------------------|
|---------------------------|---------------------|
|-------------------------2-|--2--2-1s2p0---------|
|-------------------------0-|--0--0-------4-2-0-1-|


        F6F5        F6  C5                 G5
  +E  E E E   E   E E   E        +Q.       E +H
|-------------------------|----------------------------|
|-------------------------|----------------------------|
|-----------------------5-|------(5)-------------------|
|-----------------------5-|------(5)-------5-(5)-------|
|-(3)-3-5-3---3---3-5---3-|------(3)-------5-(5)-------|
|-(1)-1-1-1---1---1-1-----|----------------3-(3)-------|
|
| +E  E E S S S S E S S E   a    +E  +E  E E +E  Q  E
|-------------------------|----------------------------|
|-------------------------|----------------------------|
|-----------------------5-|-7b9==(7)r(7)-5-4-(4)----5--|
|-----------------3-5S7---|----------------------5-----|
|-------------3h5---------|----------------------------|
|-(1)-1S5-3h5-------------|----------------------------|
|
| +E  E E S S S S E S S E   a    +E  +E  E E +E  Q  E
|-------------------------|----------------------------|
|-------------------------|----------------------------|
|-----------------------5-|-7b9==(7)r(7)-5-4-(4)-------|
|-----------------3-5S7---|----------------------5--5--|
|-------------3h5---------|----------------------------|
|-(1)-1S5-3h5-------------|----------------------------|


       C5        G5                     F5        C5
        Q.       E +H                    Q.       E +H
|-------------------------------|----------------------------|
|-------------------------------|----------------------------|
|-------5-----------------------|-----------------5-(5)------|
|-------5--------5-(5)----------|--------3--------5-(5)------|
|-------3--------5-(5)----------|--------3--------3-(3)------|
|----------------3-(3)----------|--------1-------------------|
|
| a    +E  +E  E E +Q   +S  S E   a     +E  +E  E E +E  Q  E
|-------------------------------|----------------------------|
|-----------------------------6-|-8b10==(8)r(8)-6S5-(5)----6-|
|-7b9==(7)r(7)-5-4-(4)--(4)-5---|-----------------------5----|
|-------------------------------|----------------------------|
|-------------------------------|----------------------------|
|-------------------------------|----------------------------|
|
| a    +E  +E  E E +Q.        E   a     +E  +E  E E +E  Q  E
|-------------------------------|----------------------------|
|-------------------------------|-5b6===(5)r(5)-3----------6-|
|-4b5==(4)r(4)-2--------------5-|----------------------------|
|----------------5-(5)----------|-----------------5-(5)-5----|
|-------------------------------|----------------------------|
|-------------------------------|----------------------------|


         Bb5         F5               G5  G6G5      G6G5
           Q.         E  +H           E E E E   E E E E
|-----------------------------------|--------------------|
|-----------------------------------|--------------------|
|----------3------------------------|--------------------|
|----------3----------3--(3)--------|-5-5---5---5-5---5--|
|----------1----------3--(3)--------|-5-5-7-5---5-5-7-5--|
|---------------------1--(1)--------|-3-3-3-3---3-3-3-3--|
|
|  a      +E   +E  E  E  +E  E E  E   H       a E E E E
|--8b10===(8)r=(8)-6S=5--(5)--------|--------------------|
|----------------------------8-6--5-|--------------------|
|-----------------------------------|-7-------6s7-5s4----|
|-----------------------------------|-----------------7--|
|-----------------------------------|--------------------|
|-----------------------------------|--------------------|
|
|                                     PM--------------|
|  a      +E   +E  E  E  +E  E E  E   E E E E   E E E E
|-----------------------------------|--------------------|
|-10b12==(10)r(10)p8----------------|--------------------|
|--------------------10-(10)-9p7----|-7-7-9-7---7-7-9-7--|
|--------------------------------10-|-5-5-5-5---5-5-5-5--|
|-----------------------------------|--------------------|
|-----------------------------------|--------------------|


         G6G5       G6G5         G6G5       G6G5
  E    E E E E    E E E   E    E E E E    E E E
|-----------------------|-----------------------|
|-----------------------|-----------------------|
|-----------------------|-----------------------|
|-5----5---5-5----5---5-|-5----5---5-5----5---5-|
|-5----5-7-5-5----5-7-5-|-5----5-7-5-5----5-7-5-|
|-3----3-3-3-3----3-3-3-|-3----3-3-3-3----3-3-3-|
|
| H          H            H          H
|-----------------------|-----------------------|
|-----------------------|-----------------------|
|-0tr2-------0tr4-------|-0tr5-------0tr7-------|
|-----------------------|-----------------------|
|-----------------------|-----------------------|
|-----------------------|-----------------------|
|
| PM---------------------------------------------
| E    E E E E    E E E   E    E E E E    E E E
|-----------------------|-----------------------|
|-----------------------|-----------------------|
|-7----7-9-7-7----7-9-7-|-7----7-9-7-7----7-9-7-|
|-5----5-5-5-5----5-5-5-|-5----5-5-5-5----5-5-5-|
|-----------------------|-----------------------|
|-----------------------|-----------------------|


          G6G5    G6G5            G6G5     G6A5
  E     E E E E E E E    E      E E E E  E E E
|---------------------|-------------------------||
|---------------------|-------------------------||
|---------------------|----------------------2--||
|-5-----5---5-5-5---5-|----------------------2--||
|-5-----5-7-5-5-5-7-5-|--5------5-7-5-5--5-7-0--||
|-3-----3-3-3-3-3-3-3-|--3------3-3-3-3--3-3----||
|
| W                     +H            Q    E E
|---------------------|-------------------------||
|---------------------|-------------------------||
|-0tr14---------------|-(0tr14)-------x\---x-2--||
|---------------------|---------------x\---x-2--||
|---------------------|----------------------0--||
|---------------------|-------------------------||
|
|-------------------|
| E     E E E E E E E    E      E E E E  E E E
|---------------------|-------------------------||
|---------------------|----------------------5--||
|-7-----7-9-7-7-7-9-7-|----------------------6--||
|-5-----5-5-5-5-5-5-5-|----------------------7--||
|---------------------|--5------5-7-5-5--5-7-7--||
|---------------------|--3------3-3-3-3--3-3-5--||


 Verse 3
  Gtr III
  +E  E E E a   E   E   E   E    +E   E   E   E   E   E   E   E
|-----------------------------|---------------------------------|
|-----------------------------|---------------------------------|
|-(2)-2-2-2---------2---------|-------------------------------2-|
|-(2)-2-4-2---------2---2---2-|--(2)------------------2-------2-|
|-(0)-0-0-0-3s==4-------0---0-|--(0)------------------0---3b4-0-|
|-----------------------------|-------0---2b3-0---3-------------|
|
| Gtr V
|               \1/     \1/       \1/     \1/     \1/     \1/
| +H           +Q      +Q        +Q      +Q      +Q      +Q
|-----------------------------|---------------------------------|
|-----------------------------|---------------------------------|
|-(2)---------([2])---([2])---|-([2])---([2])---([2])---([2])---|
|-(2)-------------------------|---------------------------------|
|-(0)-------------------------|---------------------------------|
|-----------------------------|---------------------------------|


                                  G6          Dsus4     A5
   +E   E   E   E a   E   E   E   E   +E  E E E +E  E E E
|---------------------------------0-|-(0)-0---3-(3)-3------|
|---------------------------------3-|-(3)-3---3-(3)-3------|
|--(2)--2---2---2---------2-------0-|-(0)-0---2-(2)-2---2--|
|--(2)--2---4---2---------2---2-----|---------4-(4)-4---2--|
|--(0)--0---0---0-3s==4-------0-----|-------------------0--|
|-----------------------------------|----------------------|
|
|   >
|   \1/     \1/       \1/     \1/
|  +Q      +Q        +Q      +Q        W
|-----------------------------------|----------------------|
|-----------------------------------|----------------------|
|-([2])---([2])-----([2])---([2])---|----------------------|
|-----------------------------------|----------------------|
|-----------------------------------|----------------------|
|-----------------------------------|----------------------|


  +E  E E E a E E E E   +E  E E   E E E E   E
|---------------------|-----------------------|
|---------------------|-----------------------|
|-(2)-2-2-2-----2-----|---------------------2-|
|-(2)-2-4-2-----2-2-2-|-(2)-----------2-----2-|
|-(0)-0-0-0-3s4---0-0-|-(0)-----------0-3b4-0-|
|---------------------|-----0-2b3-0-3---------|


                         D.S.S. al Dbl. Coda
                    G6          Dsus4     E5
  +E  E E E a E E E E   +E  E E E +E  E E E
|-------------------0-|-(0)-0---3-(3)-3------||
|-------------------3-|-(3)-3---3-(3)-3------||
|-(2)-2-2-2-----2---0-|-(0)-0---2-(2)-2------||
|-(2)-2-4-2-----2-2---|---------4-(4)-4---2--||
|-(0)-0-0-0-3s4---0---|-------------------2--||
|---------------------|-------------------0--||


  &&
  G5         A5
  Gtrs III, IGtr III
   H.      E E   +E  E E E a E E E E   +E E E   E E E E   E
|--------------|---------------------|----------------------|
|--------------|---------------------|----------------------|
|------------2-|-(2)-2-2-2-----2-----|--------------------2-|
|-(5)--------2-|-(2)-2-4-2-----2-2-2-|-(2)----------2-----2-|
|-(5)--------0-|-(0)-0-0-0-3s4---0-0-|-(0)----------0-3b4-0-|
|-(3)----------|---------------------|----0-2b3-0-3---------|
|
| Gtr II
|  W             +W                     H         H
|--------------|---------------------|----------------------|
|--------------|---------------------|----------------------|
|--2-----------|-(2)-----------------|--2s========7s========|
|--2-----------|-(2)-----------------|--2s========7s========|
|--0-----------|-(0)-----------------|----------------------|
|--------------|---------------------|----------------------|


                    G6         Dsus4         A5
  +E E E E a  E E E E   +E E E E +E E    E   E
|-------------------0-|-(0)0---3-(3)3------------||
|-------------------3-|-(3)3---3-(3)3------------||
|-(2)2-2-2------2---0-|-(0)0---2-(2)2--------2---||
|-(2)2-4-2------2-2---|--------4-(4)4--------2---||
|-(0)0-0-0-3s=4---0---|----------------------0---||
|---------------------|--------------------------||
|
|                                 |---3----|
|  H          H          H        Q    Q   Q
|---------------------|--------------------------||
|---------------------|--------------------------||
|-11s========14s======|=17S======24s==12s==1-----||
|-11s========14s======|=17S======24s==12s==1-----||
|---------------------|--------------------------||
|---------------------|--------------------------||


 Verse 4
  +E  E E E a E E E E   +E  E E   E E E E   E
|---------------------|-----------------------|
|---------------------|-----------------------|
|-(2)-2-2-2-----2-----|---------------------2-|
|-(2)-2-4-2-----2-2-2-|-(2)-----------2-----2-|
|-(0)-0-0-0-3s4---0-0-|-(0)-----------0-3b4-0-|
|---------------------|-----0-2b3-0-3---------|


                    G6          Dsus4     A5
  +E  E E E a E E E E   +E  E E E +E  E E E
|-------------------0-|-(0)-0---3-(3)-3------|
|-------------------3-|-(3)-3---3-(3)-3------|
|-(2)-2-2-2-----2---0-|-(0)-0---2-(2)-2---2--|
|-(2)-2-4-2-----2-2---|---------4-(4)-4---2--|
|-(0)-0-0-0-3s4---0---|-------------------0--|
|---------------------|----------------------|


  +E  E E E a E E E E   +E  E E   E E E E   E
|---------------------|-----------------------|
|---------------------|-----------------------|
|-(2)-2-2-2-----2-----|---------------------2-|
|-(2)-2-4-2-----2-2-2-|-(2)-----------2-----2-|
|-(0)-0-0-0-3s4---0-0-|-(0)-----------0-3b4-0-|
|---------------------|-----0-2b3-0-3---------|
|
| Gtr IV
|  W                     W
|---------------------|-----------------------|
|---------------------|-----------------------|
|---------------------|-----------------------|
|---------------------|-----------------------|
|---------------------|-----------------------|
|---------------------|-----------------------|
|
| Gtr V
|  W                     W
|---------------------|-----------------------|
|---------------------|-----------------------|
|---------------------|-----------------------|
|---------------------|-----------------------|
|---------------------|-----------------------|
|---------------------|-----------------------|


                  G6             D5                  A5
  +H     a  E E E E       +Q.    E +Q.               E
|-----------------0-----|-(0)--------------------------|
|-----------------3-----|-(3)----3-(3)-----------------|
|-(2)---------2---0-----|-(0)----2-(2)---------------2-|
|-(2)---------2-x-------|--------0-(0)---------------2-|
|-(0)----3s=4---x-------|----------------------------0-|
|-----------------------|------------------------------|
|
|  H        E E E E       +Q.    Q     a     +E  +E  E
|-----------------------|------------------------------|
|-----------------------|------------------------------|
|-----------------------|------------------------------|
|-------------7---9b11==|=(9)r---9-----9b11==(9)r(9)-7-|
|----------/9---9-------|------------------------------|
|-----------------------|------------------------------|
|
|  H        Q   E E       +Q.    Q     a     +E  +E  E
|-----------------------|------------------------------|
|-----------------------|------------------------------|
|-----------------7b9===|=(7)r---7-----7b9===(7)r(7)---|
|-----------------------|----------------------------7-|
|-----------------------|------------------------------|
|-----------------------|------------------------------|


                   G6             D5                  A5
  +H      a  E E E E       +Q.    E +Q.               E
|------------------0-----|-(0)--------------------------|
|------------------3-----|-(3)----3-(3)-----------------|
|-(2)----------2---0-----|-(0)----2-(2)---------------2-|
|-(2)----------2-x-------|--------0-(0)---------------2-|
|-(0)-----3s=4---x-------|----------------------------0-|
|------------------------|------------------------------|
|
|  Q   Q     E E E E       +Q.    Q     a     +E  +E  E
|------------------------|------------------------------|
|------------------------|------------------------------|
|------------------------|------------------------------|
|--7-----------7---9b11==|=(9)r---9-----9b11==(9)r(9)-7-|
|-----------/9---9-------|------------------------------|
|------------------------|------------------------------|
|
|  Q   Q     Q   E E       +Q.    Q     a     +E  +E  E
|------------------------|------------------------------|
|------------------------|------------------------------|
|------------------7b9===|=(7)r---7-----7b9===(7)r(7)---|
|--7---------------------|----------------------------7-|
|------------------------|------------------------------|
|------------------------|------------------------------|


                   G6             D5                  G5
  +H      a  E E E E       +Q.    E +Q.               E
|------------------0-----|-(0)----------------------------|
|------------------3-----|-(3)----3-(3)-------------------|
|-(2)----------2---0-----|-(0)----2-(2)-------------------|
|-(2)----------2-x-------|--------0-(0)---------------5---|
|-(0)-----3s=4---x-------|----------------------------5---|
|------------------------|----------------------------3---|
|
| +Q   Q     E E E E       +Q.    Q     a     +E  +E  E
|------------------------|--------------------------------|
|------------------------|--------------------------------|
|------------------------|--------------------------------|
|-(7)----------7---9b11==|=(9)r---9-----9b11==(9)r(9)-5---|
|-----------/9---9-------|----------------------------5---|
|------------------------|----------------------------3---|
|
| +Q   Q     Q   E E       +Q.    Q     a     +E  +E  E
|------------------------|--------------------------------|
|------------------------|--------------------------------|
|------------------7b9===|=(7)r---7-----7b9===(7)r(7)-----|
|-(7)--------------------|----------------------------5---|
|------------------------|----------------------------5---|
|------------------------|----------------------------3---|


                             H.=H
                             A5
  +W           +H.      Q    Q  Q  Q  Q    W          +H     +E  E Q
|------------|-------------|-------------|----------|-------------------*|
|------------|-------------|-------------|----------|-------------------*|
|------------|-------------|-2-----2-----|-2--------|-(2)----(2)--------*|
|-(5)--------|-(5)---------|-2-----2-----|-2--------|-(2)----(2)--------*|
|-(5)--------|-(5)---------|-0-----0-----|-0--------|-(0)----(0)--------*|
|-(3)--------|-(3)---------|-------------|----------|-------------------*|
|
| +W           +H.      Q    Q  Q  Q  Q    W          +H     +E  E Q
|------------|-------------|-------------|----------|-------------------*|
|------------|-------------|-------------|----------|-------------------*|
|------------|-------------|-2-----2-----|-2--------|-(2)----(2)--------*|
|-(5)--------|-(5)---------|-2-----2-----|-2--------|-(2)----(2)--------*|
|-(5)--------|-(5)---------|-0-----0-----|-0--------|-(0)----(0)--------*|
|-(3)--------|-(3)---------|-------------|----------|-------------------*|
|
| +W           +H.      Q    Q  Q  Q  Q    W          +H     +E  E Q
|------------|-------------|-------------|----------|-------------------*|
|------------|-------------|-------------|----------|-------------------*|
|------------|-------------|-2-----2-----|-2--------|-(2)----(2)--------*|
|-(5)--------|-(5)---------|-2-----2-----|-2--------|-(2)----(2)--------*|
|-(5)--------|-(5)---------|-0-----0-----|-0--------|-(0)----(0)--------*|
|-(3)--------|-(3)---------|-------------|----------|-------------------*|


Duration Legend
---------------
W - whole; H - half; Q - quarter; E - 8th; S - 16th; T - 32nd; X - 64th; a - acciaccatura
+ - note tied to previous; . - note dotted; .. - note double dotted
Uncapitalized letters represent notes that are staccato (1/2 duration)
Irregular groupings are notated above the duration line
Duration letters will always appear directly above the note/fret number it represents the
duration for.  Duration letters with no fret number below them represent rests.  Multi-
bar rests are notated in the form Wxn, where n is the number of bars to rest for.  Low
melody durations appear below the staff

Tablature Legend
----------------
 h   - hammer-on
 p   - pull-off
 b   - bend
 pb  - pre-bend
 r   - bend release (if no number after the r, then release immediately)
 /\  - slide into or out of (from/to "nowhere")
 s   - legato slide
 S   - shift slide
  - natural harmonic
[n]  - artificial harmonic
n(n) - tapped harmonic
 ~   - vibrato
 tr  - trill
 T   - tap
 TP  - trem. picking
 PM  - palm muting
\n/  - tremolo bar dip; n = amount to dip
 \n  - tremolo bar down
 n/  - tremolo bar up
/n\  - tremolo bar inverted dip
 =   - hold bend; also acts as connecting device for hammers/pulls
 <>  - volume swell (louder/softer)
 x   - on rhythm slash represents muted slash
 o   - on rhythm slash represents single note slash

Misc Legend
-----------
 |  - bar
||  - double bar
||o - repeat start
o|| - repeat end
*|  - double bar (ending)
 :  - bar (freetime)
 $  - Segno
 &  - Coda
Tempo markers -  = BPM(8/16=s8/s16), where s8 = swing 8ths, s16 = swing 16ths





Comments


Popular Boston tabs & chords
Feelin Satisfied Bass Tabs
Peace Of Mind Chords
Dont Look Back Intro Tabs
Foreplay/Longtime 1 Tabs
More Than A Feeling (Intro Ver 4) Tabs
More Than A Feeling (Solo Ver 2) Tabs
More Than A Feeling 3 Tabs
Peace Of Mind Intro 1 Tabs
Star Spangled Banner Tabs
Stare Out Your Window Tabs


Song lyrics



↑ Back to top | Tablatures and chords are parodies/interpretations of the original songs. You may use it for private study, scholarship, research or language learning purposes only
© 2014 AZChords.com Contact us | Privacy policy | DMCA | Add/correct tabs | Request tabs | Top 50 tabs