» » »

Livin' For You Tabs (ver.1)

Artists:  A B C D E F G H I J K L M N O P Q R S T U V W X Y Z # 

Livin' For You Tabs (ver.1)

Boston
Rating:
0/5 (0 votes)

Hard to play? Try these video lessons and learn fast.
                verse
------------------|
--1---3--1--------|
2---2-------------|  x 20
------------------|
------------------|
------------------|


no guitar in first chorus


verse
------------------|
--1---3--1--------|
2---2-------------|  x 17
------------------|
------------------|
------------------|

solo 1
-7-8~-7-8~-7-8~-12-10-8-|
------------------------|
------------------------|
------------------------|
------------------------|
------------------------|

-7-8~-7-8-12-8-7-8~-12-7-8~~-|
-----------------------------|
-----------------------------|
-----------------------------|
-----------------------------|
-----------------------------|


verse
------------------|
--1---3--1--------|
2---2-------------|  x 17
------------------|
------------------|
------------------|

bridge
-------|
-------|
-5~-5~-|  x6 (not positive)
-5~-5~-
-3~-3~-
-------

solo 2
-7-8~-7-8~-7-8~-12-10-8-|
------------------------|
------------------------|
------------------------|
------------------------|
------------------------|


-7-8~-7-8-12-8--7-8~-12--7-8~-12-10-8-|
--------------------------------------|
--------------------------------------|
--------------------------------------|
--------------------------------------|
--------------------------------------|


-7-8~-7-8-12-8-7-8~-12-7-8~~-|
-----------------------------|
-----------------------------|
-----------------------------|
-----------------------------|
-----------------------------|

verse
------------------          1~-1~-3-5-5~-3-1~~-|
--1---3--1--------          -------------------|
2---2-------------  x 1o    -------------------|
------------------          -------------------|
------------------          -------------------|
------------------          -------------------|


im pretty sure it almost perfect

rate please
            
Hard to play? Try these video lessons and learn fast. | Correct




comments powered by Disqus
↑ Back to top | Tablatures and chords are parodies/interpretations of the original songs. You may use it for private study, scholarship, research or language learning purposes only