» » »

Let Me Take You Home Tonight Tabs (ver.1)

Artists:  A B C D E F G H I J K L M N O P Q R S T U V W X Y Z # 

Let Me Take You Home Tonight Tabs (ver.1)

Boston
Rating:
5/5 (1 vote)

Tabs too difficult? Try these video lessons and learn fast.
                I am 99.9% sure this tab is correct. Good luck.

h=hammer on
p=pull off
br=bend and return
~=vibrato

e-----------------------------------------------------------------------|
b----------7h8p7-------7-----10b-10br-10-7----------------10p8p7--------|
g-------7h9------9-7-9---9p7---------------7h9p7--11-11-9--------9-6----|
D----7h9-------------------------------------------------------------9~-|
A-----------------------------------------------------------------------|
E-----------------------------------------------------------------------|

e------------------2p0---0-9/10-----------------------------------------|
b--7h8p7---7-----------3------------------------------------------------|
g--------9---7h9p7------------------------------------------------------|
D-----------------------------------------------------------------------|
A-----------------------------------------------------------------------|
E-----------------------------------------------------------------------|
            
Tabs too difficult? Try these video lessons and learn fast.


comments powered by Disqus
↑ Back to top | Tablatures and chords are parodies/interpretations of the original songs. You may use it for private study, scholarship, research or language learning purposes only