>
 >
Hitch A Ride (Solo)

Hitch A Ride (Solo) Guitar Tabs

Boston - Hitch A Ride (Solo) chords, tabs, tablatures, lyrics

Guitar lessons | Add/correct | Request | Top 50 tabs Artists:  A B C D E F G H I J K L M N O P Q R S T U V W X Y Z 0-9

Hitch A Ride (Solo) Guitar Tabs – Boston

CD, Sheet music, Poster

Do you like Hitch A Ride (Solo)? Share with your friends now
Tabs
Band: Boston

standard tunig with a capo on the 1st fret

e----------11-13-11-------11-13b15r13--11---11----------11--------------|
B-11-11h13----------11h13----------------13----11-11h13-----------------|
G----------------------------------------------------------13-11--------|
D-----------------------------------------------------------------------|
A-----------------------------------------------------------------------|
E-----------------------------------------------------------------------|

------------------------------------------18----18b20r18-15-15h16p15----|
---------------------------------16-18b20----16----------------------18-|
-------15-17/--------15----15-17----------------------------------------|
-15/17---------15/17----17----------------------------------------------|
------------------------------------------------------------------------|
------------------------------------------------------------------------|

---------------------------18-------------------------------------------|
-16-16-18-16--16-18b20-b20----18b20-------------------------------------|
------------------------------------------------------------------------|
-------------------------------------x----------------------------------|
-------------------------------------x----------------------------------|
------------------------------------------------------------------------|

------------------------------------------------------------------------|
---------------------------------------------11-------------11b13-11-9--|
--10b12r10-8----8-8------8-10--10b12r10----8----8--10b12-10-------------|
-------------10-----10p8----------------10------------------------------|
------------------------------------------------------------------------|
------------------------------------------------------------------------|

--8h9p8-----------------------------------------------------------------------|
--------10p9------------------------------------------------------------------|
-----------------8------b12r10-b12r10-b12r10-b12--x---8-10b12r10-8----8-8-----|
--------------10---10p8---------------------------x----------------10----10p8-|
------------------------------------------------------------------------------|
------------------------------------------------------------------------------|

----------------------------10-----------------------20-----------------|
-----------------14--15---7------------20b21-b21-b21----20b21r20-18-20--|
-10b12r10-8----8-10--11---------12-13-----------------------------------|
------------10----------------------------------------------------------|
------------------------------------------------------------------------|
------------------------------------------------------------------------|

-------18---------------16-15h16p15----15-16---------16-15h16p15----15-16----|
-18b20----b20r18-16--16-------------18------------16-------------18----------|
----------------------------------------------18--------------------------17-|
-----------------------------------------------------------------------------|
-----------------------------------------------------------------------------|
-----------------------------------------------------------------------------|

----16-------16-15h16p15-----------------------------------------------------|
-16----------------------18-16-13--------------------------11-------8-11-8---|
-------16-15----------------------15-13-12h13p12-----10b12----10b12----------|
-------------------------------------------------13--------------------------|
-----------------------------------------------------------------------------|
-----------------------------------------------------------------------------|

-----------------------------------------------------------------------------|
---8-11-8-----------11b13--11-9-8h9p8----------------------------------------|
-10-------10-8----8--------------------10p8--8---------8-10p8---8h10p8-------|
---------------10--------------------------10--10p8-10--------10-------------|
-----------------------------------------------------------------------------|
-----------------------------------------------------------------------------|

-----------------------------------------------------------------------------|
-----------9-11---8-9-11-13p11----11h13p11--1414b16r14-11-14-11----11-13-11--|
---------8------8--------------13-------------------------------13-----------|
-10p8h10---------------------------------------------------------------------|
-----------------------------------------------------------------------------|
-----------------------------------------------------------------------------|

--------------14b16r15r14-14b16-14b16r14-12-14p11----11h14p11h13p12----------|
-13-11----11--------------------------------------13----------------13-11----|
-------13--------------------------------------------------------------------|
-----------------------------------------------------------------------------|
-----------------------------------------------------------------------------|
-----------------------------------------------------------------------------|

-----------------------------------------------------------------------------|
-14b16-14-13-11--------------------------------------------------------------|
----------------14p13p11------------------------13-12h13p12----12-13-12------|
-------------------------13p12p11--------/13-13-------------15----------13---|
----------------------------------11/10--------------------------------------|
-----------------------------------------------------------------------------|

------------------------------------------------11h13-11h13-11h13p11---------|
-----------------------------14b16-14b16--11-13----------------------13------|
-13-12-----13-12-------10-12-------------------------------------------------|
-----------------11-13-------------------------------------------------------|
-------15--------------------------------------------------------------------|
-----------------------------------------------------------------------------|

--11h13p11----11h13p11----11h13p11----11h13p11-------19b21-------------------|
-----------13----------13----------13----------13-11-------18p16-------------|
-----------------------------------------------------------------17----------|
-----------------------------------------------------------------------------|
-----------------------------------------------------------------------------|
-----------------------------------------------------------------------------|

--------------------16b18--16b18---------------------------------------------|
-16h18p16-------15--18b20--18b20-------------16-18-16----------16-18b20r18---|
----------17p15---------------------15-15h17----------15-15h17---------------|
-----------------------------------------------------------------------------|
-----------------------------------------------------------------------------|
-----------------------------------------------------------------------------|

-----------------------15b16--------------|
-16-----16----------16--------16----------|
----17-----15-15-17-----------13--12/15---|
------------------------------------------|
------------------------------------------|
------------------------------------------|





Comments


Popular Boston tabs & chords
Feelin Satisfied 2 Tabs
Foreplay And Long Time Tabs
Hitch A Ride Tabs
Livin' For You Tabs
More Than A Feeling 9 Tabs
Peace Of Mind (Intro) Tabs
Peace Of Mind 3 Tabs
Rock And Roll Band 1 Tabs
Smokin' 1 Tabs
Something About You Intro Tabs


Song lyrics



↑ Back to top | Tablatures and chords are parodies/interpretations of the original songs. You may use it for private study, scholarship, research or language learning purposes only
© 2014 AZChords.com Contact us | Privacy policy | DMCA | Add/correct tabs | Request tabs | Top 50 tabs