>
 >
Higher Power 1

Higher Power 1 Guitar Tabs

Boston - Higher Power 1 chords, tabs, tablatures, lyrics

Guitar lessons | Add/correct | Request | Top 50 tabs Artists:  A B C D E F G H I J K L M N O P Q R S T U V W X Y Z 0-9

Higher Power 1 Guitar Tabs – Boston

CD, Sheet music, Poster

Do you like Higher Power 1? Share with your friends now
TabsTabs v2
Higher Power- Boston


M=Mute
e -------------------------------------------------------
B -------------------------------------------------------
G -7---7---7-7-7-7---------------------------------------
D -7---7---7-7-7-7--7-7--7-7-8-8--8-8-8-8--10-10--10-10--
A -5---5---5-5-5-5--7-7--7-7-8-8--8-8-8-8--10-10--10-10--
E ------------------5-5--5-5-6-6--6-6-6-6--8--8---8--8---
                                                        (x2)
e ------------------------------------------------------------------------
B -M-----------------------------------M----------------------------------
G -10-10-10-10-10-10-10-10-10-10--8----10-10-10-10-10-10-10-10-10-10--8---
D -10-10-10-10-10-10-10-10-10-10--8----10-10-10-10-10-10-10-10-10-10--8---
A -8--8--8--8--8--8--8--8--8--8---6----8--8--8--8--8--8--8--8--8--8---6---
E ------------------------------------------------------------------------

e -------------------------------------------------------------
B -------------------------------------------------------------
G -------------------------------------------------------------
D -5-5-5-5-5-5-5-5-5-5--8---10-----5-5-5-5-5-5-5-5-5-5--3-3/5--
A -5-5-5-5-5-5-5-5-5-5--8---10-----5-5-5-5-5-5-5-5-5-5--3-3/5--
E -3-3-3-3-3-3-3-3-3-3--6---8------3-3-3-3-3-3-3-3-3-3--1-1/3--

e -------------------------------------------------------------
B -------------------------------------------------------------
G -------------------------------------------------------------
D -5-5-5-5-5-5-5-5-5-5--8---10-----5-5-5-5-5-5-5-5-5-5--2-2-2--
A -5-5-5-5-5-5-5-5-5-5--8---10-----5-5-5-5-5-5-5-5-5-5--2-2-2--
E -3-3-3-3-3-3-3-3-3-3--6---8------3-3-3-3-3-3-3-3-3-3--0-0-0--

Chorus:
e ---------------------------------------------------
B ---------------------------------------------------
G -6---6---6-6-6-6-----------------------------------
D -6---6---6-6-6-6--6-6--6-6-7-7--7-7-7-7--9-9--9-9--
A -4---4---4-4-4-4--6-6--6-6-7-7--7-7-7-7--9-9--9-9--
E ------------------4-4--4-4-5-5--5-5-5-5--7-7--7-7--

After second verse:
e ---------------------------------------------------
B ---------------------------------------------------
G -9-9-9-9-9-9-9-9-9-9--7---9-9-9-9-9-9-9-9-9-9--6---
D -9-9-9-9-9-9-9-9-9-9--7---9-9-9-9-9-9-9-9-9-9--6---
A -7-7-7-7-7-7-7-7-7-7--5---7-7-7-7-7-7-7-7-7-7--4---
E ---------------------------------------------------

e -------------------------------------------------------------
B -------------------------------------------------------------
G -------------------------------------------------------------
D -5-5-5-5-5-5-5-5-5-5--8!--10!----5-5-5-5-5-5-5-5-5-5--2-2-2--
A -5-5-5-5-5-5-5-5-5-5--8!--10!----5-5-5-5-5-5-5-5-5-5--2-2-2--
E -3-3-3-3-3-3-3-3-3-3--6!--8------3-3-3-3-3-3-3-3-3-3--0-0-0--

Second verse fills:
e --------------|--------------|--------------
B --------------|--------------|--------------
G --------------|--------------|--------------
D -x-x-x-x--3~--|-x-x-8---10!--|-5-5-5-5--2!--
A -x-x-x-x--3~--|-x-x-8---10!--|-5-5-5-5--2!--
E -x-x-x-x--1~--|-x-x-6---8----|-3-3-3-3--0!--

Before Solo:
e -----------------------------------------------------------------
B -----------------------------------------------------------------
G -10--10--10-10-10-10------------------------------------8-8-8-8--
D -10--10--10-10-10-10--10-10--10-10--11-11--11-11-11-11--8-8-8-8--
A -8---8---8--8--8--8---10-10--10-10--11-11--11-11-11-11--6-6-6-6--
E ----------------------8--8---8--8---9--9---9--9--9--9------------

Solo:
e ----------------------------------
B ---------------------------8^9^8--
G -9^10^9--7h9p7--5~---7h9p7--------
D ----------------------------------
A ----------------------------------
E ----------------------------------

e ---------------------------------------------------------
B -M---------------------------M---------------------------
G ----------------------8-8-8-----------------------8-8-8--
D -3-3-3-3-3-3-3-3-3-3--8-8-8--3-3-3-3-3-3-3-3-3-3--8-8-8--
A -3-3-3-3-3-3-3-3-3-3--6-6-6--3-3-3-3-3-3-3-3-3-3--6-6-6--
E -1-1-1-1-1-1-1-1-1-1---------1-1-1-1-1-1-1-1-1-1---------

e -M--------------------------M--------------------------
B -------------------------------------------------------
G -9-9-9-9-9-9-9-9-9-9--7-7---9-9-9-9-9-9-9-9-9-9--7-7---
D -9-9-9-9-9-9-9-9-9-9--7-7---9-9-9-9-9-9-9-9-9-9--7-7---
A -7-7-7-7-7-7-7-7-7-7--5-5---7-7-7-7-7-7-7-7-7-7--5-5---
E -------------------------------------------------------

e -----------------------------------------------------------
B -M--------------------------M------------------------------
G ----------------------7-7------------------------7--7--9---
D -2-2-2-2-2-2-2-2-2-2--7-7---2-2-2-2-2-2-2-2-2-2--7--7--9---
A -2-2-2-2-2-2-2-2-2-2--5-5---2-2-2-2-2-2-2-2-2-2--5--5--7---
E -0-0-0-0-0-0-0-0-0-0--------0-0-0-0-0-0-0-0-0-0------------





Comments


Popular Boston tabs & chords
Don't Look Back Bass Tabs
Amanda 2 Chords
Tell Me Chords
Foreplay Long Time (Solo) Tabs
Higher Power Tabs
More Than A Feeling Tabs
More Than A Feeling (Solo Ver 2) Tabs
Smokin' Tabs
Tell Me Tabs
Feelin Satisfied Ukulele


Song lyrics



↑ Back to top | Tablatures and chords are parodies/interpretations of the original songs. You may use it for private study, scholarship, research or language learning purposes only
© 2014 AZChords.com Contact us | Privacy policy | DMCA | Add/correct tabs | Request tabs | Top 50 tabs