» » »

Boston, Foreplay And Long Time Tabs (ver.5)

Artists:  A B C D E F G H I J K L M N O P Q R S T U V W X Y Z # 

Foreplay And Long Time Tabs (ver.5)

Boston Tabs
Rating:
0/5 (0 votes)
Foreplay And Long Time lessons Tabs too difficult? Try these video lessons and learn fast
                (Solo)

t - trill
* - pinch harmonicl

-------------------------13-15-13--15b17-15b17--15b17-15-13----15----13-------|
-16b18-16b18-x--13-13h15------------------------------------15----15----------|
------------------------------------------------------------------------------|
------------------------------------------------------------------------------|
------------------------------------------------------------------------------|
------------------------------------------------------------------------------|
 Solo 1

-------17-18-20-20b22-20-17-18-17-18-17----17--------------13----13-15b17-----|
-10/18----------------------------------18----18\--8/13-13----13--------------|
------------------------------------------------------------------------------|
------------------------------------------------------------------------------|
------------------------------------------------------------------------------|
------------------------------------------------------------------------------|


-----------------------------------------------------------------------------|
-15b17-15b17-15b17vvvvv------------------------------------------------------|
-----------------------------------------------------------------------------|
-----------------------------------------------------------------------------|
-----------------------------------------------------------------------------|
-----------------------------------------------------------------------------|
 ___________________________________________________________________________

------------------------------------------------------------------------------|
------------------------------------------------------------------------------|
-----------10-10-------------10-10-10\-------10-10-12p10-12b13-12-12b13r12----|
-----10/12-------12p10-10/12-----------10/12----------------------------------|
---x--------------------------------------------------------------------------|
-x----------------------------------------------------------------------------|
 Solo 2

------------------------------------------------------------------------------|
-10-13b15-13b15*-13b15*-13b15*-13b15r13---------------------------------------|
-----------------------------------------10-12p10h12p10h12p10h12p10h12--------|
------------------------------------------------------------------------------|
------------------------------------------------------------------------------|
------------------------------------------------------------------------------|


-17-20p18p17-20p18p17-20p18p17-20p18p17-20p18p17-20p18p17-20p18p17-20p18p17---|
------------------------------------------------------------------------------|
------------------------------------------------------------------------------|
------------------------------------------------------------------------------|
------------------------------------------------------------------------------|
------------------------------------------------------------------------------|


-20p18p17-20p18p17------------------------------------------------------------|
-------------------20-20b22--22\----------------------------------------------|
----------------------------------15b17-15b16-15b17-15b16-15b17r15-14---------|
------------------------------------------------------------------------------|
------------------------------------------------------------------------------|
------------------------------------------------------------------------------|


-----------------------------------------------------------------------------|
-16b18vvvvvv-----------------------------------------------------------------|
-----------------------------------------------------------------------------|
-----------------------------------------------------------------------------|
-----------------------------------------------------------------------------|
-----------------------------------------------------------------------------|
 ___________________________________________________________________________

------------------------------------------------------------------------------|
------------------------------------------------13-16p13-------13-16p13-------|
--15b17--15b20-----x-\----3b4-2h3-2*---15-15b17----------15b17----------------|
-------------------x-\\-------------------------------------------------------|
-------------------x-\\\------------------------------------------------------|
----------------------\\------------------------------------------------------|
 Main Solo             \

------------------------------------------------------------------------------|
-------13-16p13-------13-16p13-------13-16p13----13-16p13----13-16p13---------|
-15b17----------15b17----------15b17----------15----------15------------------|
------------------------------------------------------------------------------|
------------------------------------------------------------------------------|
------------------------------------------------------------------------------|


------------------------------------------------------------------15----16----|
----13-16p13----13-16p13----13t16---13t16--------------------3/17----18-------|
-15----------15---------------------------\-----------------------------------|
-------------------------------------------\----------------------------------|
--------------------------------------------\---------------------------------|
---------------------------------------------\--------------------------------|
                                              \ (dive w/bar)

-18b20-18b20-20b22-20b21-20b22-20b21-20b22--18\10--13p10-------------10-------|
---------------------------------------------------------13p10-13b15----------|
------------------------------------------------------------------------------|
------------------------------------------------------------------------------|
------------------------------------------------------------------------------|
------------------------------------------------------------------------------|


------------------------------------------------------------------------------|
-13p10------------------------------------------------------------------------|
-------12b14r12p10-12p10------------------------------------------------------|
-------------------------12-10-12p10------------------------------------------|
-------------------------------------12p10-10p8----8--------------------------|
------------------------------------------------10---10\3--5-5-5b6vvv---------|


------------------------------------------------------------------------------|
----------------------------------------------------------1t3vvv--4b6-4b6-----|
--------------------------------------------------------1---------------------|
------------------------------------------------------3-----------------------|
---------------------------------8--------------------------------------------|
-5h6-4b5-4b5-4b5-4b5-5/8-8\5-6-5-----5b6-5b6-0-----1*-------------------------|
                                              \ (dive w/bar) (vibe w/bar)

-----------------------------------------------------------------------------|
-4b5-4b6-4b6-4---------------------------------------------------------------|
---------------3b5-3-3b5-3b5-------------------------------------------------|
-----------------------------------------------------------------------------|
-----------------------------------------------------------------------------|
-----------------------------------------------------------------------------|
 ___________________________________________________________________________

-18b20-18b20-16-18b20-18b20-18p16--18-b18--18b20-18b20-18b21------------------|
------------------------------------------------------------------------------|
--------------------------------------------------------------17b19-17b20-17--|
------------------------------------------------------------------------------|
------------------------------------------------------------------------------|
------------------------------------------------------------------------------|
 End Solo

------------------------------------------------------------------------------|
------------------------------------------------------------------------------|
-17b20-17b20-17b20--17--10-12-10--12b14p12-12b14r12-12b14--12b15r12p10--------|
------------------------------------------------------------------------------|
------------------------------------------------------------------------------|
------------------------------------------------------------------------------|


------------------------------------------------------------------------------|
--------------------------------10b13--18-------------------------------------|
-12p10h12p10h12p10h12p10------------------\---------------------1/10----------|
-------------------------0-----------------\--------------0vvvv---------------|
-------------------------0-\----------------\---------------------------------|
---------------------------\\----------------\--------------------------------|
 Fade                       \ (dive w/bar)     (dive w/bar)

------------------------------------------------------------------------------|
-11-----------------------------------13-11-13-11-13-11-13-11-----------------|
----\-------------------------------------------------------------------------|
-----\------------------------------------------------------------------------|
------\-----------------------------------------------------------------------|
-------\---------------0--------------------------------------0---------------|
        \ (dive w/bar)   \ (-8 w/bar)                           \ (slack)
            

comments powered by Disqus
↑ Back to top | Boston Tabs for Foreplay And Long Time. Lyrics for acoustic guitar and electric guitar. Tablatures and chords are parodies/interpretations of the original songs. You may use it for private study, scholarship, research or language learning purposes only