>
 >
Don't Look Back

Don't Look Back Bass Tabs

Boston - Don't Look Back chords, tabs, tablatures, lyrics

Guitar lessons | Add/correct | Request | Top 50 tabs Artists:  A B C D E F G H I J K L M N O P Q R S T U V W X Y Z 0-9

Don't Look Back Bass Tabs – Boston

CD, Sheet music, Poster

Do you like Don't Look Back? Share with your friends now
Bass TabsChordsChords v2TabsTabs v2
Boston - 'Don't Look Back' for Bass
Standard Bass Tuning

Hope you like this tab, its got a good rhythm. Please rate and comment


Intro (0:10)
G|-----------------|-----------------|-----------------|-------4---------------|
D|-----7-------7---|-----7-------7---|-----7-------7---|----6-----4----6-7p6p4-|
A|-----------------|-----------------|-----------------|-7---------------------|
E|-5-------5-------|-5-------5-------|-5-------5-------|-----------------------|



Verse Riff 1
G|-----------------|-----------------|-----------------|-----------------------|
D|-----7-------7---|-----7-------7---|-----7-------7---|-----7-----4-----4--6--|
A|-----------------|-----------------|-----------------|---------7-------------|
E|-5-------5-------|-5-------5-------|-5-------5-------|-5---------------------|

G|-----------------|-----------------|-----------------|----1--4---------------|
D|-----7-------7---|-----7-------7---|-----7-------7---|-2---------------------|
A|-----------------|-----------------|-----------------|-----------------0--4--|
E|-5-------5-------|-5-------5-------|-5-------5-------|---------2----4--------|

G|-------------------|------------------|------------------|-----------------|
D|-----------5-------|--------2-0-------|-------5------5---|-5-----5-4-------|
A|-------5---------2-|-3-----------3p2--|------------5-----|-----------5---2-|
E|-3-------3---------|------------------|-3--------------3-|-----------------|

G|----------------|------------------|------------------|------------------|
D|----------------|---------------2--|-0------0-0-----0-|-0-0-0-0-0-0-4----|
A|-3---------3-2--|-0------3--2------|------------------|------------------|
E|----------------|------------------|------------------|------------------|



Prechorus
G|------------------|-----------------|------------------|------------------|
D|--------2-2-------|-----2-2---------|---------2-2-2----|-(2)----2---------|
A|------------------|-----------------|------------------|------------------|
E|-0----------------|-0---------------|-0----------------|------------------|




Chorus (^ is below a grace note, which is played swiftly)
G|-----------------|------------------|----------------|-----------------|
D|-----------------|--------5---------|----------------|-------5---5-4h5-|
A|-0---------------|-------------2--3-|-5-----/5--3--2-|-----------------|
E|--------0-1----3-|-3----------------|----------------|-3---------------|

G|-2---------------|------------------|----------------|-----------------|
D|--------2-3----5-|-(5)------5--3--2-|----------------|-------5---5-4h5-|
A|-----------------|------------------|-5------5--3--2-|----------5------|
E|-----------------|------3-----------|----------------|-3--------^------|

G|-----------|----------|--------|--------|-14-----------|-13-14----14----------|
D|-7---------|-(7)------|--------|--------|--------14-16-|-------------14-------|
A|-----------|----------|--------|--------|--------------|----------------16-14-|
E|-----------|----------|-rest---|-rest---|--------------|----------------------|



Verse 2
G|---------------|---------------|---------------|-----------------------|
D|-----7-------7-|-----7-------7-|-----7-------7-|-----7-----7------7----|
A|---------------|---------------|---------------|---------7--7/9----9p7-|
E|-5-------5-----|-5-------5-----|-5-------5-----|-5---------------------|

G|-----------------|-----------------|-----------------|----1--4---------------|
D|-----7-------7---|-----7-------7---|-----7-------7---|-2---------------------|
A|-----------------|-----------------|-----------------|-----------------0--4--|
E|-5-------5-------|-5-------5-------|-5-------5-------|---------2----4--------|

G|-------------------|------------------|------------------|-----------------|
D|-----------5-------|-5------5-4-------|------------------|-------2-0---4-5-|
A|-------5---------2-|-------------5----|-------5--------2-|-3---------------|
E|-3-------3---------|----------------2-|-3-------3--------|-----------------|

G|-5--------------|-----------------|------------------|------------------|
D|----------------|-----------------|-0------0-0-----0-|-0-0-0-0-0-4-5-7--|
A|------3----0-2--|-0---------------|------------------|------------------|
E|----------------|--------3--2--0--|------------------|------------------|



Play Prechorus again

Chorus 2 (2:04)
G|-----------------|------------------|----------------|-----------------|
D|-----------------|--------5---------|----------------|-------5---------|
A|-0---------------|-------------2--3-|-5----5/7-5-3-2-|----5------0-3p2-|
E|--------0-1----3-|-3----------------|----------------|-3---------------|

G|-----------------|------------------|----------------|-----------------|
D|-----------------|------------------|----------------|-------5---------|
A|-0---------------|-------------2--3-|-5----5/7-5---0-|-----------5-3---|
E|--------0-1----3-|-3----------------|----------------|-3-------------5-|


Interlude
G|-----------|-----------|-----------|--------------|-14---------|-(14)------|
D|-----------|-----------|-7---------|-(7)----13/14-|------------|-----------|
A|-0---------|-(0)-----7-|-----------|--------------|------------|-----------|
E|-----------|-----------|-----------|--------------|------------|-----------|

G|-(14)-------|-(14)--------|----------|-----------|
D|------------|-------------|----------|-----------|
A|------------|-------------|----------|-----------| fades out
E|------------|-----------3-|-5--------|-(5)-------|



(2:59) End of Interlude
G|-------------|---------------|---------------|---------------|---------------|
D|-------------|---------------|---------------|---------------|---------------|
A|-----0--0----|---------------|-0----0-0------|---------------|-0----0-0------|
E|-----------0-|-1----1-3----3-|-------------0-|-1----1-3----3-|-------------0-|

G|---------------|---------------|---------------|---------------|---------------|
D|---------------|---------------|---------------|---------------|---------------|
A|---------------|-0----0-0------|---------------|-0----0-0----0-|-0----0-0-2-2--|
E|-1----1-3----3-|-------------0-|-1----1-3----3-|---------------|---------------|



Guitar Solo (3:17)
G|---------------|----------------|----------------|------------|---------------|
D|-2-------------|----------------|----------5h7-5-|------------|---------------|
A|------2-3----3-|-5------5---3p2-|-0-----7-----7--|-5------3\2-|------2-3----3-|
E|---------------|----------------|----------------|------------|-0-------------|

G|----------------|-----------------|-----------------|---------------|---------------|
D|----------------|-------7---7-6---|-----------------|---------------|---------------|
A|-5------5---3p2-|-0--------7----3-|-5-5-5-5-5-2-----|------2-3----3-|-5-----5--3-2--|
E|----------------|-----------------|-------------3-2-|-0-------------|-------------3-|

G|----------------|----------------|---------------|----------------|---------------|
D|------------5---|----------------|---------------|----------------|-----------5---|
A|-0----2--3----3-|-5----5-5---3-2-|------2-3----3-|-5-----5---3p2--|-0----2--3---3-|
E|----------------|----------------|-0--0----------|--------------3-|---------------|

G|----------------|----------------|---------------|-----------------|
D|----------7-5-4-|----------------|---------------|-----------------|
A|-5-----5--------|-7----------7-7-|-----------0-2-|-7-7-7-7-7-7-7-7-|
E|----------------|----------------|-0-0-0-3/4-----|-----------------|

|----------------------------6-77-9-|
|---------------5/6-6-77-9-9--------|
|-7---7---7---7---------------------|
|-----------------------------------|



Verse 3
G|---------------|---------------|---------------|----------------------|
D|-----7-------7-|-----7-------7-|-----7-------7-|-----7-----7----------|
A|---------------|---------------|---------------|---------7--7/9--9-11-|
E|-5-------5-----|-5-------5-----|-5-------5-----|-5--------------------|

G|-----------------|-----------------|-----------------|----1--4---------------|
D|-----7-------7---|-----7-------7---|-----7-------7---|-2---------------------|
A|-----------------|-----------------|-----------------|-----------------0--4--|
E|-5-------5-------|-5-------5-------|-5-------5-------|---------2----4--------|

G|-------------------|------------------|------------------|-----------------|
D|-----------5-------|-5------5-4-------|-----------5------|-------2-0---4-5-|
A|-----------------2-|-------------5----|-------5--------2-|-3---------------|
E|-3-----3-3---------|----------------2-|-3-------3--------|-----------------|

G|-5-------------|-----------------|------------------|------------------|
D|---------------|-----------------|-0------0-0-----0-|-0-0-0-0-0-0-4----|
A|------3---5-2--|-0---------------|------------------|------------------|
E|---------------|--------3--2--0--|------------------|------------------|


Play Prechorus Again

Final Chorus
G|-----------------|------------------|--------------2-|---------------|
D|-----------------|--------5------5--|-------2-3------|-5-------------|
A|-0---------------|-------------5----|-5--------------|-----------3\2-|
E|--------0-1----1-|-3----------------|----------------|---3-----------|

G|----------------|------------------|----------------|-----------4-5-7-|
D|-------0-2------|-5------5-----332-|----------------|--------5--------|
A|-0--3-----------|------------5-----|-5------3-5-3-2-|-----------------|
E|----------------|-----3------------|----------------|-3---------------|

G|----------------|----------------|---------------|----------------|---------------|
D|----------------|--5-------------|---------------|--555-----------|---------------|
A|-0--------------|----------------|-0-------------|----------------|-0-------------|
E|-------0-1----3-|-----3--3-------|------0-1----3-|-------3--3-----|------0-1----3-|

G|----------------|----------------|---------------|
D|--555-----------|----------------|---------------|
A|----------------|-0--------------|-(0)-----------| bass stops
E|-------3-3------|----------------|---------------|



Ending (Verse Riff again)
G|---------------|----------------|---------------|-----------------------|
D|-----7-------7-|-----7------7---|-----7-------7-|-----7-----7----44--6--|
A|---------------|--------------7-|---------------|---------7---7---------|
E|-5-------5-----|-5-------5------|-5-------5-----|-5---------------------|

G|---------------|---------------|---------------|-------------------|
D|-----7-------7-|-----7-------7-|-----7-------7-|-7-6-4-------------|
A|---------------|---------------|---------------|-------7----4-5-7--|
E|-5-------5-----|-5-------5-----|-5-------5-----|-------------------|

G|---------------|---------------|---------------|---------7-6-------|
D|-----7-------7-|-----7---7---7-|-----7-------7-|-----7-------9-----|
A|---------------|---------------|---------------|---------------9\--|
E|-5-------5-----|-5--------5----|-5-------5-----|-5-----------------|

G|---------------|-----------------|---------------|---------14--13-----|---------|
D|-----7-------7-|-----7-----------|-----7-------7-|-12-11---------14\--|---------|
A|---------------|-----------4-5-7-|---------------|------12------------|-0-------|
E|-5-------5-----|-5-------7-------|-5-------5-----|--------------------|---------|


Key:
| /  slide up
| \  slide down
| h  hammer-on
| p  pull-off
|()  hold previous note into next bar





Comments


Popular Boston tabs & chords
More Than A Feeling Chords
Rok N Roll Band Chords
Cool The Engines 2 Tabs
Dont Look Back Intro Tabs
Foreplay Long Time 2 Tabs
Foreplay/Longtime 1 Tabs
Hitch A Ride Intro Tabs
More Than A Feeling 1 Tabs
Pace Of Mind Tabs
Peace Of Mind Tabs


Song lyrics



↑ Back to top | Tablatures and chords are parodies/interpretations of the original songs. You may use it for private study, scholarship, research or language learning purposes only
© 2014 AZChords.com Contact us | Privacy policy | DMCA | Add/correct tabs | Request tabs | Top 50 tabs