» » »

Bosshog, Bee Hive Tabs (ver.1)

Artists:  A B C D E F G H I J K L M N O P Q R S T U V W X Y Z # 

Bee Hive Tabs (ver.1)

Bosshog Tabs
Rating:
0/5 (0 votes)
Bee Hive lessons Tabs too difficult? Try these video lessons and learn fast
                #------------------------------------------------------------------------------##
#



 "Bee Hive " by Boss Hog
 June, 6 1996

intro (repeat 3x)

E:----------------------------------------------------------------------|
B:----------------------------------------------------------------------|
G:----------------------------------------------------------------------|
D:----------------------------------------------------------------------|
A:--8---------------------------------8---------------------------------|
E:------10--8--5--8--5--8--5--10------10--8--5--8--5--8--5--11----------|

verse after intro (not finished )

E:------------------------------------------------------|
B:------------------------------------------------------|
G:------------------------------------------------------|
D:------------------------------------------------------|
A:--10--10--10--10--10--13--10--13--16--13--------------|
E:------------------------------------------------------|

after that, repeat intro ,then it goes something like this
(repeat a few)

E:--------------------------------|
B:--------------------------------|
G:--------------------------------|
D:---------------------------10---|
A:--9--9--9--9--9--9h11-----------|
E:--------------------------------|

after that repeat intro once more, then this funky beat >
(repeat 4x)

E:-----------------------------------------|
B:-----------------------------------------|
G:-----------------------------------------|
D:-----------------------------------------|
A:-----------------------------------------|
E:--5--5--9--9--10--10--11--11--12---------|

repeat intro again,and that's it
--josh--


I'm not sure what I'm doing but, i read thru the olga and it said that it
would be easy to send it to this address to get it posted so whoever gets
this, could you please do all the duties in seeing that it gets posted. my
abliged. I have a ton of this stuff, so if you need any more info , write me
--josh
--
Kim and Carla Keafer
and Josh "Mr. Grand Slam", Whitney the punkin-head, and Megan the monkey
            
Submit corrections

comments powered by Disqus
↑ Back to top | Bosshog Tabs for Bee Hive. Lyrics for acoustic guitar and electric guitar. Tablatures and chords are parodies/interpretations of the original songs. You may use it for private study, scholarship, research or language learning purposes only