>
 >
Colossus 6-String

Colossus 6-String Bass Tabs

Borknagar - Colossus 6-String chords, tabs, tablatures, lyrics

Guitar lessons | Add/correct | Request | Top 50 tabs Artists:  A B C D E F G H I J K L M N O P Q R S T U V W X Y Z 0-9

Colossus 6-String Bass Tabs – Borknagar

CD, Sheet music, Poster

Do you like Colossus 6-String? Share with your friends now
Bass Tabs
Borknagar - Colossus


C||------|------|------|------|-----4-----9--------|------7--0--9--7--0--|
G||------|------|------|------|--2-----2-----9-----|---------------------|
D||------|------|------|------|-----------------9--|--10-----------------|
A||------|------|------|------|--------------------|---------------------|
E||------|------|------|------|--------------------|---------------------|
B||------|------|------|------|--------------------|---------------------|


                                                               
-----9-----7--9-----|--0--7--0--9--7--0--|-----4-----9--------|
--7-----7--------7--|--------------------|--------2-----9-----|
--------------------|--------------------|--7--------------9--|
--------------------|--------------------|--------------------|
--------------------|--------------------|--------------------|
--------------------|--------------------|--------------------|


                                                                
------7--0--9--7--0--|-----9-----7--9-----|--0--7--0--9--7--0--|
---------------------|--7-----7--------7--|--------------------|
--10-----------------|--------------------|--------------------|
---------------------|--------------------|--------------------|
---------------------|--------------------|--------------------|
---------------------|--------------------|--------------------|


                                                                
-----4-----9--------|------7--0--9--7--0--|-----9-----7--9-----|
--------2-----9-----|---------------------|--7-----7--------7--|
--7--------------9--|--10-----------------|--------------------|
--------------------|---------------------|--------------------|
--------------------|---------------------|--------------------|
--------------------|---------------------|--------------------|


                                                               
--0--7--0--9--7--0--|--------------------|--------------------|
--------------------|--------------------|--------------------|
--------------------|--------------------|--------------------|
--------------------|--0--0--0--0--0--0--|--2--2--2--2--2--2--|
--------------------|--------------------|--------------------|
--------------------|--------------------|--------------------|


                                                               
--------------------|--------------------|--------------------|
--------------------|--------------------|--------------------|
--------------------|--------------------|--------------------|
--3--3--3--3--3--3--|--3--2--2--2--1--1--|--0--0--0--0--0--0--|
--------------------|--------------------|--------------------|
--------------------|--------------------|--------------------|


                                                               
--------------------|--------------------|--------------------|
--------------------|--------------------|--------------------|
--------------------|--------------------|--------------------|
--2--2--2--2--2--2--|--3--3--3--3--3--3--|--3--2--2--2--1--1--|
--------------------|--------------------|--------------------|
--------------------|--------------------|--------------------|


                                                               
--------------------|--------------------|--------------------|
--------------------|--------------------|--------------------|
--------------------|--------------------|--------------------|
--0--0--0--0--0--0--|--2--2--2--2--2--2--|--3--3--3--3--3--3--|
--------------------|--------------------|--------------------|
--------------------|--------------------|--------------------|


                                                               
--------------------|--------------------|--------------------|
--------------------|--------------------|--------------------|
--0--0--0--2--2--2--|--------------------|--------------------|
--------------------|--0--0--0--0--0--0--|--2--2--2--2--2--2--|
--------------------|--------------------|--------------------|
--------------------|--------------------|--------------------|


                                                               
--------------------|--------------------|--------------------|
--------------------|--------------------|--------------------|
--------------------|--0--0--0--2--2--2--|--------------------|
--3--3--3--3--3--3--|--------------------|--0--0--0--0--0--0--|
--------------------|--------------------|--------------------|
--------------------|--------------------|--------------------|


                                                               
--------------------|--------------------|--------------------|
--------------------|--------------------|--------------------|
--------------------|--------------------|--------------------|
--2--2--2--2--2--2--|--3--3--3--3--3--3--|--3--2--2--2--1--1--|
--------------------|--------------------|--------------------|
--------------------|--------------------|--------------------|


                                                               
--------------------|--------------------|--------------------|
--------------------|--------------------|--------------------|
--------------------|--------------------|--------------------|
--0--0--0--0--0--0--|--2--2--2--2--2--2--|--3--3--3--3--3--3--|
--------------------|--------------------|--------------------|
--------------------|--------------------|--------------------|


                                                               
--------------------|--------------------|--------------------|
--------------------|--------------------|--------------------|
--------------------|--------------------|--------------------|
--3--2--2--2--1--1--|--0--0--0--0--0--0--|--2--2--2--2--2--2--|
--------------------|--------------------|--------------------|
--------------------|--------------------|--------------------|


                                                               
--------------------|--------------------|--------------------|
--------------------|--------------------|--------------------|
--------------------|--0-----0-----------|--------------------|
--3--3--3--3--3--3--|-----3-----2--3--2--|--0--0--0--0--0--0--|
--------------------|--------------------|--------------------|
--------------------|--------------------|--------------------|


                                                               
--------------------|--------------------|--------------------|
--------------------|--------------------|--------------------|
--------------------|--------------------|--0-----0--2--0-----|
--2--2--2--2--2--2--|--3--3--3--3--3--3--|-----3-----------3--|
--------------------|--------------------|--------------------|
--------------------|--------------------|--------------------|


                                                                  
---------------------|---------------------|---------------------|
---------------------|---------------------|---------------------|
--2--2--2-2-2--2--2--|--2--2--2-2-2--2--2--|--0--0-0-0--0--0--0--|
---------------------|---------------------|---------------------|
---------------------|---------------------|---------------------|
---------------------|---------------------|---------------------|


                                                                 
--------------------|---------------------|---------------------|
--0--------0--------|---------------------|---------------------|
-----4--2-----4--2--|--2--2--2-2-2--2--2--|--2--2--2-2-2--2--2--|
--------------------|---------------------|---------------------|
--------------------|---------------------|---------------------|
--------------------|---------------------|---------------------|


                                                                 
---------------------|--------------------|---------------------|
---------------------|--0-----0--2--0--2--|---------------------|
--0--0--0-0-0--0--0--|-----4--------------|--2--2--2-2-2--2--2--|
---------------------|--------------------|---------------------|
---------------------|--------------------|---------------------|
---------------------|--------------------|---------------------|


                                                                          
---------------------|---------------------|--------------------|--------|
---------------------|---------------------|--0-----0--2--0-----|--------|
--2--2--2-2-2--2--2--|--0--0--0-0-0--0--0--|-----4-----------4--|--------|
---------------------|---------------------|--------------------|--2--2--|
---------------------|---------------------|--------------------|--------|
---------------------|---------------------|--------------------|--------|


                                                                  
---------------------|---------------------|---------------------|
---------------------|---------------------|---------------------|
--2--2--2-2-2--2--2--|--2--2--2-2-2--2--2--|--0--0-0-0--0--0--0--|
---------------------|---------------------|---------------------|
---------------------|---------------------|---------------------|
---------------------|---------------------|---------------------|


                                                                
---------------------|--------------------|--------------------|
---------------------|--------------------|--------------------|
--0--0-0-0--0--0--0--|--2--2--2--2--2--2--|--4--4--4--4--4--4--|
---------------------|--------------------|--------------------|
---------------------|--------------------|--------------------|
---------------------|--------------------|--------------------|


                                                               
--------------------|--------------------|--------------------|
--0--0--0--0--0--0--|--2--0--0--0--0-----|--------------------|
--------------------|-----------------4--|--2--2--2--2--2--2--|
--------------------|--------------------|--------------------|
--------------------|--------------------|--------------------|
--------------------|--------------------|--------------------|


                                                               
--------------------|--------------------|--------------------|
--------------------|--0--0--0--0--0--0--|--2--0--0--0--0-----|
--4--4--4--4--4--4--|--------------------|-----------------4--|
--------------------|--------------------|--------------------|
--------------------|--------------------|--------------------|
--------------------|--------------------|--------------------|


                                                                  
---------------------|---------------------|---------------------|
---------------------|---------------------|---------------------|
--2--2--2-2-2--2--2--|--2--2--2-2-2--2--2--|--0--0-0-0--0--0--0--|
---------------------|---------------------|---------------------|
---------------------|---------------------|---------------------|
---------------------|---------------------|---------------------|


                                                                 
--------------------|---------------------|---------------------|
--0--------0--------|---------------------|---------------------|
-----4--2-----4--2--|--2--2--2-2-2--2--2--|--2--2--2-2-2--2--2--|
--------------------|---------------------|---------------------|
--------------------|---------------------|---------------------|
--------------------|---------------------|---------------------|


                                                                 
---------------------|--------------------|---------------------|
---------------------|--0-----0--2--0--2--|---------------------|
--0--0-0-0--0--0--0--|-----4--------------|---------------------|
---------------------|--------------------|--4--4--4-4-4--4--4--|
---------------------|--------------------|---------------------|
---------------------|--------------------|---------------------|


                                                                  
---------------------|---------------------|---------------------|
---------------------|---------------------|---------------------|
---------------------|---------------------|---------------------|
--4--4--4-4-4--4--4--|--2--2-2-2--2--2--2--|--0--0-0-0--0--0--0--|
---------------------|---------------------|---------------------|
---------------------|---------------------|---------------------|


                                                                  
---------------------|---------------------|---------------------|
---------------------|---------------------|---------------------|
---------------------|---------------------|---------------------|
--4--4--4-4-4--4--4--|--4--4--4-4-4--4--4--|--2--2-2-2--2--2--2--|
---------------------|---------------------|---------------------|
---------------------|---------------------|---------------------|


                                                                            
---------------------|--------------------------|--------------------------|
---------------------|--------------------------|--------------------------|
---------------------|--------------------------|--------------------------|
--0--0-0-0--0--0--0--|--------------------------|--------------------------|
---------------------|--0-0-0-0-2-2-2-0-0-0-3-3-|--3-0-0-0-2-2-0-0-2-2-2-3-|
---------------------|--------------------------|--------------------------|


                                                      
--------------------------|--------------------------|
----------------------0-0-|--0-----------------------|
----------0-0-0-----------|----4-4-4-0-0-0-0-2-2-2-2-|
--3-3-3-3-------3-3-3-----|--------------------------|
--------------------------|--------------------------|
--------------------------|--------------------------|


                                                      
--------------------------|--------------------------|
--------------------------|--------------------------|
--------------------------|--------------------------|
--------------------------|--------------------------|
--0-0-0-0-2-2-2-0-0-0-3-3-|--3-0-0-0-2-2-0-0-2-2-2-3-|
--------------------------|--------------------------|


                                                                           
--------------------------|--------------------------|--------------------|
----------------------0-0-|--0-----------------------|--------------------|
----------0-0-0-----------|----4-4-4-0-0-0-0-2-2-2-2-|--------------------|
--3-3-3-3-------3-3-3-----|--------------------------|--2-----------------|
--------------------------|--------------------------|-------0--0-0-0--0--|
--------------------------|--------------------------|--------------------|


                                                      
--------------------------|--------------------------|
--------------------------|----------------------0-0-|
--------------------------|----------0-0-0-----------|
--------0-0-0-------2-2-2-|--3-3-3-3-------3-3-3-----|
--3-3-3-------3-3-3-------|--------------------------|
--------------------------|--------------------------|


                                                                           
--------------------------|--------------------|--------------------------|
--0-----------------------|--------------------|--------------------------|
----4-4-4-0-0-0-0-2-2-2-2-|--------------------|--------------------------|
--------------------------|--2-----------------|--------0-0-0-------2-2-2-|
--------------------------|-------0--0-0-0--0--|--3-3-3-------3-3-3-------|
--------------------------|--------------------|--------------------------|


                                                                            
--------------------------|--------------------------|---------------------|
----------------------0-0-|--0-----------------------|---------------------|
----------0-0-0-----------|----4-4-4-0-0-0-0-2-2-2-2-|---------------------|
--3-3-3-3-------3-3-3-----|--------------------------|--4--4--4-4-4--4--4--|
--------------------------|--------------------------|---------------------|
--------------------------|--------------------------|---------------------|


                                                                  
---------------------|---------------------|---------------------|
---------------------|---------------------|---------------------|
---------------------|---------------------|---------------------|
--4--4--4-4-4--4--4--|--2--2-2-2--2--2--2--|--0--0-0-0--0--0--0--|
---------------------|---------------------|---------------------|
---------------------|---------------------|---------------------|


                                                                  
---------------------|---------------------|---------------------|
---------------------|---------------------|---------------------|
---------------------|---------------------|---------------------|
--4--4--4-4-4--4--4--|--4--4--4-4-4--4--4--|--2--2-2-2--2--2--2--|
---------------------|---------------------|---------------------|
---------------------|---------------------|---------------------|


                                                                
---------------------|--------------------|--------------------|
---------------------|-----------0--0--0--|-----------0--0--0--|
---------------------|--2--2--2-----------|--2--2--2-----------|
--0--0-0-0--0--0--0--|--------------------|--------------------|
---------------------|--------------------|--------------------|
---------------------|--------------------|--------------------|


                                                               
--------------------|--------------------|--------------------|
-----------0--0--0--|-----------0--0--0--|-----------0--0--0--|
--------------------|-----0--0-----------|--2--2--2-----------|
--3--3--3-----------|--3-----------------|--------------------|
--------------------|--------------------|--------------------|
--------------------|--------------------|--------------------|


                                                               
--------------------|--------------------|--------------------|
-----------0--0--0--|-----------0--0--0--|-----------0--0--0--|
--2--2--2-----------|--------------------|-----0--0-----------|
--------------------|--3--3--3-----------|--3-----------------|
--------------------|--------------------|--------------------|
--------------------|--------------------|--------------------|


                                                                  
---------------------|---------------------|---------------------|
---------------------|---------------------|---------------------|
---------------------|---------------------|---------------------|
--4--4--4-4-4--4--4--|--4--4--4-4-4--4--4--|--2--2-2-2--2--2--2--|
---------------------|---------------------|---------------------|
---------------------|---------------------|---------------------|


                                                                  
---------------------|---------------------|---------------------|
---------------------|---------------------|---------------------|
---------------------|---------------------|---------------------|
--0--0-0-0--0--0--0--|--4--4--4-4-4--4--4--|--4--4--4-4-4--4--4--|
---------------------|---------------------|---------------------|
---------------------|---------------------|---------------------|


                                                                       
---------------------|---------------------|--------------------------|
---------------------|---------------------|--------------------------|
---------------------|---------------------|--------------------------|
--2--2-2-2--2--2--2--|--0--0-0-0--0--0--0--|--------------------------|
---------------------|---------------------|--0-0-0-0-2-2-2-0-0-0-3-3-|
---------------------|---------------------|--------------------------|


                                                      
--------------------------|--------------------------|
--------------------------|----------------------0-0-|
--------------------------|----------0-0-0-----------|
--------------------------|--3-3-3-3-------3-3-3-----|
--3-0-0-0-2-2-0-0-2-2-2-3-|--------------------------|
--------------------------|--------------------------|


                                                      
--------------------------|--------------------------|
--0-----------------------|--------------------------|
----4-4-4-0-0-0-0-2-2-2-2-|--------------------------|
--------------------------|--------------------------|
--------------------------|--0-0-0-0-2-2-2-0-0-0-3-3-|
--------------------------|--------------------------|


                                                      
--------------------------|--------------------------|
--------------------------|----------------------0-0-|
--------------------------|----------0-0-0-----------|
--------------------------|--3-3-3-3-------3-3-3-----|
--3-0-0-0-2-2-0-0-2-2-2-3-|--------------------------|
--------------------------|--------------------------|


                                                                           
--------------------------|--------------------|--------------------------|
--0-----------------------|--------------------|--------------------------|
----4-4-4-0-0-0-0-2-2-2-2-|--------------------|--------------------------|
--------------------------|--2-----------------|--------0-0-0-------2-2-2-|
--------------------------|-------0--0-0-0--0--|--3-3-3-------3-3-3-------|
--------------------------|--------------------|--------------------------|


                                                                           
--------------------------|--------------------------|--------------------|
----------------------0-0-|--0-----------------------|--------------------|
----------0-0-0-----------|----4-4-4-0-0-0-0-2-2-2-2-|--------------------|
--3-3-3-3-------3-3-3-----|--------------------------|--2-----------------|
--------------------------|--------------------------|-------0--0-0-0--0--|
--------------------------|--------------------------|--------------------|


                                                      
--------------------------|--------------------------|
--------------------------|----------------------0-0-|
--------------------------|----------0-0-0-----------|
--------0-0-0-------2-2-2-|--3-3-3-3-------3-3-3-----|
--3-3-3-------3-3-3-------|--------------------------|
--------------------------|--------------------------|


                                                                       
--------------------------|---------------------|---------------------|
--0-----------------------|---------------------|---------------------|
----4-4-4-0-0-0-0-2-2-2-2-|---------------------|---------------------|
--------------------------|--4--4--4-4-4--4--4--|--4--4--4-4-4--4--4--|
--------------------------|---------------------|---------------------|
--------------------------|---------------------|---------------------|


                                                                  
---------------------|---------------------|---------------------|
---------------------|---------------------|---------------------|
---------------------|---------------------|---------------------|
--2--2-2-2--2--2--2--|--0--0-0-0--0--0--0--|--4--4--4-4-4--4--4--|
---------------------|---------------------|---------------------|
---------------------|---------------------|---------------------|


                                                                  
---------------------|---------------------|---------------------|
---------------------|---------------------|---------------------|
---------------------|---------------------|---------------------|
--4--4--4-4-4--4--4--|--2--2-2-2--2--2--2--|--0--0-0-0--0--0--0--|
---------------------|---------------------|---------------------|
---------------------|---------------------|---------------------|


                                                               
--------------------|--------------------|--------------------|
-----------0--0--0--|-----------0--0--0--|-----------0--0--0--|
--2--2--2-----------|--2--2--2-----------|--------------------|
--------------------|--------------------|--3--3--3-----------|
--------------------|--------------------|--------------------|
--------------------|--------------------|--------------------|


                                                               
--------------------|--------------------|--------------------|
-----------0--0--0--|-----------0--0--0--|-----------0--0--0--|
-----0--0-----------|--2--2--2-----------|--2--2--2-----------|
--3-----------------|--------------------|--------------------|
--------------------|--------------------|--------------------|
--------------------|--------------------|--------------------|


                                                               
--------------------|--------------------|--------------------|
-----------0--0--0--|-----------0--0--0--|-----------0--0--0--|
--------------------|-----0--0-----------|--2--2--2-----------|
--3--3--3-----------|--3-----------------|--------------------|
--------------------|--------------------|--------------------|
--------------------|--------------------|--------------------|


                                                               
--------------------|--------------------|--------------------|
-----------0--0--0--|-----------0--0--0--|-----------0--0--0--|
--2--2--2-----------|--------------------|-----0--0-----------|
--------------------|--3--3--3-----------|--3-----------------|
--------------------|--------------------|--------------------|
--------------------|--------------------|--------------------|


                                                               
--------------------|--------------------|--------------------|
-----------0--0--0--|-----------0--0--0--|-----------0--0--0--|
--2--2--2-----------|--2--2--2-----------|--------------------|
--------------------|--------------------|--3--3--3-----------|
--------------------|--------------------|--------------------|
--------------------|--------------------|--------------------|


                                                                    
--------------------|---------------|--------------|--------------||
-----------0--0--0--|---------------|--------------|--------------||
-----0--0-----------|---------------|--------------|--------------||
--3-----------------|---------------|--------------|--------------||
--------------------|--0------------|--------------|--------------||
--------------------|---------------|--------------|--------------||





Comments


Popular Borknagar tabs & chords
Colossus Bass Tabs
Colossus 1 Bass Tabs
Colossus 2 Bass Tabs
Four Element Synchronicity Bass Tabs
The Genuine Pulse Bass Tabs
The Genuine Pulse 1 Bass Tabs
Colossus Tabs
The Dawn Of The End Tabs
The View Of Everlast Tabs


Song lyrics



↑ Back to top | Tablatures and chords are parodies/interpretations of the original songs. You may use it for private study, scholarship, research or language learning purposes only
© 2014 AZChords.com Contact us | Privacy policy | DMCA | Add/correct tabs | Request tabs | Top 50 tabs