» » »

Banana Republic Bass tabs (ver.1)

Artists:  A B C D E F G H I J K L M N O P Q R S T U V W X Y Z # 

Banana Republic Bass tabs (ver.1)

Boomtown Rats
Rating:
0/5 (0 votes)

Hard to play? Try these video lessons and learn fast.
                                       BANANA REPUBLIC
                      THE BOOMTOWN RATS

  This is an ol' 80's tune I have finally got around to working out
  the bassline to, though I hope I havn't made too many mistakes,
  ...if I have, let me know.
  The bassline actually has quite a reggae feel to it, and great
  practice for beginners specially the small differences between the 
  intro and outro

  If you like it, rate it.... go on, sign in and do it,
  you know you want to

 INTRO

 G|-------------------------------------------------------------|
 D|-----55-------------33-------------55-------------33---------|
 A|-3-3----33-2----1-1----11------3-3----33-2----1-1----11------|
 E|-------------0------------5-3--------------0------------5-3--|



 G|---------------------------------------------------------|
 D|---------------------------------------------------------|
 A|-5-5----5-5--3-3---5-5----5-5--3-3-----------5-5-00-5----|
 E|-----55-------3--------55-------3---5-5-00-5----------3--|

SONG

 G|------------------------------------------------------|
 D|------------------------------------------------------|
 A|--5-5-5-555-5--3-3-3-333-3--5-5-5-555-5--3-3-3-333-3--|
 E|-----5-----5------3-----3------5-----5------3-----3---|


 G|-------------------------------------|
 D|-------------------------------------|     Repeats through song until
 A|--5-5-5-555-5--3-3-3-333-3--5-5-5----|      '' Police and Priests''
 E|-----5-----5------3-----3------5--3--| 

 OUTRO

 G|-------------------------------------------------------------|
 D|-----55-------------33-------------55-------------33---------|
 A|-3-3----33-2----1-1----11------3-3----33-2----1-1----11------|
 E|-------------0------------5-3--------------0------------5-3--|



 G|--------------------------------------|
 D|--------------------------------------|
 A|-5-5----5-5--3-3---5-5----5-3---------|
 E|-----55-------3--------55---------3---|


 G|-------------------------------------------------------------|
 D|-----55-------------33-------------55-------------33---------|
 A|-3-3----33-2----1-1----11------3-3----33-2----1-1----11------|
 E|-------------0------------5-3--------------0------------5-3--|
            
Hard to play? Try these video lessons and learn fast. | Correct




comments powered by Disqus
↑ Back to top | Tablatures and chords are parodies/interpretations of the original songs. You may use it for private study, scholarship, research or language learning purposes only