» » »

Booker T And The Mgs, Behave Yourself Bass tabs (ver.1)

Artists:  A B C D E F G H I J K L M N O P Q R S T U V W X Y Z # 

Behave Yourself Bass tabs (ver.1)

Booker T And The Mgs Tabs
 Rating:
4/5 (4 votes)
Behave Yourself lessons Tabs too difficult? Try these video lessons and learn fast
                Booker T. And The MG's
Written by Steve Cropper, Booker T. Jones, Lewis Steinberg and Al Jackson,
Jr.; released as a B-side to "Green Onions", and on the album "Green Onions"

Verse:
G|------ ------ ------ ------|------ ------ ------ ------|
D|3------1------0------------|---------------------------|
A|---------------------3-----|1------0-------------3-----|
E|---------------------------|--------------3------------|
 


G|------ ------ ------ ------|------ ------ ------ ------|
D|---------------------0-----|3------1------0------------|
A|-------0------3------------|---------------------3---2-|
E|1--------------------------|---------------------------|
 


G|------ ------ ------ 0-----|------ ------ ------ 3-2-0-|
D|-------0------3--------3---|-------0------3------------|
A|1------------------------1-|1--------------------------|
E|---------------------------|---------------------------|
 


G|------ ------ ------ ------|------ ------ ------ ------|
D|3--------------------0-----|3------0-----------------0-|
A|-------0------3------------|--------------3------0-----|
E|---------------------------|---------------------------|
 


G|------ ------ 0----- 2-----|------ ------ ------ 0-----|
D|-------2-------------------|-------0------3------------|
A|3--------------------------|1--------------------------|
E|---------------------------|---------------------------|
 


G|------ ------ ------ ------|------ ------ ------ ------|
D|3--------------------0-----|3------0---------------0-2-|
A|-------0------3------------|--------------3------3-----|
E|---------------------------|---------------------------|
 

Verse:
G|------ ------ ------ ------|------ ------ ------ ------|
D|3------1------0------------|---------------------------|
A|---------------------3-----|1------0-------------3-----|
E|---------------------------|--------------3------------|
 


G|------ ------ ------ ------|------ ------ ------ ------|
D|---------------------0-----|3------1------0------------|
A|-------0------3------------|---------------------3---2-|
E|1--------------------------|---------------------------|
 


G|------ ------ ------ 0-----|------ ------ ------ 3---2-|
D|-------0------3--------3---|-------0------3------------|
A|1------------------------1-|1--------------------------|
E|---------------------------|---------------------------|
 


G|------ ------ ------ ------|------ ------ ------ ----0-|
D|3--------------------0-----|3------0-------------0-----|
A|-------0------3------------|--------------3------------|
E|---------------------------|---------------------------|
 


G|------ ------ 0----- 2-----|------ ------ ------ 0-----|
D|-------2-------------------|-------0------3----------3-|
A|3----------------------3-2-|1--------------------------|
E|---------------------------|---------------------------|
 


G|------ ------ ------ ------|------ ------ ------ ------|
D|3--------------------0-----|3------0---------------0-2-|
A|-------0------3------------|--------------3------3-----|
E|---------------------------|---------------------------|


Verse:
G|------ ------ ------ ------|------ ------ ------ ------|
D|3---3--1---1--0---0--------|---------------------------|
A|---------------------3---2-|1---1--0---0---------3---3-|
E|---------------------------|--------------3---3--------|
 


G|------ ------ ------ ------|------ ------ ------ ------|
D|---------------------0---0-|3---3--1---1--0---0----3---|
A|-------0---0--3---3--------|---------------------3---0-|
E|1---1----------------------|---------------------------|
 


G|------ ------ ------ 0-----|------ ------ ------ 3---2-|
D|-------0---0--3---3----3---|-------0---0--3---3--------|
A|1---1--------------------1-|1---1----------------------|
E|---------------------------|---------------------------|
 


G|------ ------ ------ ------|------ ------ ------ ------|
D|3---3----------------0---0-|3---3--0---0---------0---0-|
A|-------0---0--3---3--------|--------------3---3--------|
E|---------------------------|---------------------------|
 


G|------ ------ 0---0- 2-0---|------ ------ ------ 0---0-|
D|-------2---2---------------|-------0---0--3---3--------|
A|3---3--------------------2-|1---1----------------------|
E|---------------------------|---------------------------|
 


G|------ ------ ------ ------|------ ------ ------ ------|
D|3---3----------------0---0-|3---3--0---0---------0---2-|
A|-------0---0--3---3--------|--------------3---3--------|
E|---------------------------|---------------------------|


Verse:
G|------ ------ ------ ------|------ ------ ------ 0---0-|
D|3---3--1---1--0---0--------|-------0---0--3---3--------|
A|---------------------3---2-|1---1----------------------|
E|---------------------------|---------------------------|
 


G|------ ------ ------ ------|------ ------ ------ ------|
D|3---3----------------0---0-|3---3--1---1--0---0----3---|
A|-------0---0--3---3--------|---------------------3---0-|
E|---------------------------|---------------------------|
 


G|------ ------ ------ 0-----|------ ------ ------ 3-2-0-|
D|-------0---0--3---3----3---|-------0---0--3---3--------|
A|1---1--------------------1-|1---1----------------------|
E|---------------------------|---------------------------|
 


G|------ ------ ------ ------|------ ------ ------ ------|
D|3---3----------------0---0-|3---3--0---0---------0---0-|
A|-------0---0--3---3--------|--------------3---3--------|
E|---------------------------|---------------------------|
 


G|------ ------ 0---0- 2-----|------ ------ ------ 3---0-|
D|-------2---2---------------|-------0---0--3---3--------|
A|3---3------------------3-2-|1---1----------------------|
E|---------------------------|---------------------------|
 


G|------ ------ ------ ------|------ ------ ------ ------|
D|3---3----------------0---0-|3---3--0---0---------0---2-|
A|-------0---0--3---3--------|--------------3---3--------|
E|---------------------------|---------------------------|


Verse:
G|------ ------ ------ ------|------ ------ ------ ------|
D|3---3--1---1--0---0--------|---------------------------|
A|---------------------3---2-|1---1--0---0---------3---3-|
E|---------------------------|--------------3---3--------|
 


G|------ ------ ------ ------|------ ------ ------ ------|
D|---------------------0---0-|3---3--1---1--0---0----3---|
A|-------0---0--3---3--------|---------------------3---0-|
E|1---1----------------------|---------------------------|
 


G|------ ------ ------ 0-----|------ ------ ------ 3-2-0-|
D|-------0---0--3---3----3---|-------0---0--3---3--------|
A|1---1--------------------1-|1---1----------------------|
E|---------------------------|---------------------------|
 


G|------ ------ ------ ------|------ ------ ------ ------|
D|3---3----------------0---0-|3---3--0---0---------0---0-|
A|-------0---0--3---3--------|--------------3---3--------|
E|---------------------------|---------------------------|
 


G|------ ------ 0---0- 2-----|------ ------ ------ 3-2-0-|
D|-------2---2---------------|-------0---0--3---3--------|
A|3---3------------------3-2-|1---1----------------------|
E|---------------------------|---------------------------|
 


G|------ ------ ------ ------|------ ------ ------ ------|
D|3---3----------------0---0-|3---3--0---0-----------0-2-|
A|-------0---0--3---3--------|--------------3------3-----|
E|---------------------------|---------------------------|


Verse:
G|------ ------ ------ ------|------ ------ ------ 0---0-|
D|3---3--1---1--0---0--------|-------0---0--3---3--------|
A|---------------------3---2-|1---1----------------------|
E|---------------------------|---------------------------|
fade out...

Please e-mail me for any corrections, or write a comment.
            
Submit corrections

comments powered by Disqus
↑ Back to top | Booker T And The Mgs Bass for Behave Yourself. Lyrics for acoustic guitar and electric guitar. Tablatures and chords are parodies/interpretations of the original songs. You may use it for private study, scholarship, research or language learning purposes only