» » »

Flutter Tabs (ver.1)

Artists:  A B C D E F G H I J K L M N O P Q R S T U V W X Y Z # 

Flutter Tabs (ver.1)

Bonobo
Rating:
0/5 (0 votes)

Hard to play? Try these video lessons and learn fast.
                "Flutter" - Bonobo
This is a really uplifting, funky song by Bonobo. I'll show you how to play some of the parts.

b = bend
h = hammer on
p = pull off

Here is the little guitar lick played many times throughout the song:
e|----------------------------------|
B|----------------------------------|
G|-----10b-----------8h7---7h8p7h---|
D|--10-----12b-----------7----------|
A|----------------------------------|
E|----------------------------------|

2nd time (basically the same thing)
e|-------------------------------|
B|-------------------------------|
G|--10b-----------8h7---7h8p7h---|
D|------12b-----------7----------|
A|-------------------------------|
E|-------------------------------|


Bass Part
The main bass part can be played on a normal guitar; simply drop D and play this:
e|----------------------------------|
B|----------------------------------|
G|----------------------------------|
D|----------------------------------|
A|----------------------------------|
D|-0---3-7-----3---7-0---3-7-----7--|

The 2nd bass riff can also be played on a normal guitar (the riff heard towards the end 
the song);
Drop D and play:
e|--------------------------------|
B|--------------------------------|
G|--------------------------------|
D|--------------------------------|
A|--0-----------------------------|
D|----10-12--15-12--10--10h12-----|x2

e|--------------------------------|
B|--------------------------------|
G|--------------------------------|
D|--------------------------------|
A|--0-----------------------------|
D|----10-12--15--17--15-12--10----|

e|--------------------------------|
B|--------------------------------|
G|--------------------------------|
D|--------------------------------|
A|--0-----------------------------|
D|----10-12--15--12---17-15--12---|
            
Hard to play? Try these video lessons and learn fast. | Correct




comments powered by Disqus
↑ Back to top | Tablatures and chords are parodies/interpretations of the original songs. You may use it for private study, scholarship, research or language learning purposes only