» » »

Bon Jovi Jon, Every Word Was A Piece Of My Heart Tabs (ver.1)

Artists:  A B C D E F G H I J K L M N O P Q R S T U V W X Y Z # 

Every Word Was A Piece Of My Heart Tabs (ver.1)

Bon Jovi Jon Tabs
 Rating:
4/5 (4 votes)
Every Word Was A Piece Of My Heart lessons Tabs too difficult? Try these video lessons and learn fast
                taken off the album Destination Anywhere

Pls send comments. I'd very much appreciate it


Chords used : Dsus2  xx0230
              Dsus/E xx2230 - Dsus2 with 4th string E bass
              D      xx0232
              A      x02220
              G      320033

I've been staring       at the page
           |---0-----0----------0-----0-------|
           |-----3-----3---3------3-----3---3-|     *suggested fingering:
           |-------2-----2----------2-----2---|      -ring finger for the
           |-0----------------2---------------|       2nd string 3rd fret
           |----------------------------------|      -middle finger for the 
           |----------------------------------|       3rd string 2nd fret
            Dsus2             Dsus2/E                -and the index finger
                                                      for the bass D string
    For what seems like days
           |---0-----0----------0-----0-------|
           |-----3-----3---3------3-----3---3-|
           |-------2-----2----------2-----2---|
           |-0----------------2---------------|
           |----------------------------------|
           |----------------------------------|
            Dsus2             Dsus2/E

           I guess I put this one off for a while
           |---0-----0----------0-----0---------0-----0---------0-----0-----|
           |-----3-----3---3------3-----3---3-----3-----3---3-----3-----3---|
           |-------2-----2----------2-----2---------2-----2---------2-----2-|
           |-0----------------2---------------0---------------0-------------|
           |----------------------------------------------------------------|
           |----------------------------------------------------------------|
            Dsus2             Dsus2/E

Did I see a tear fall, from your eyes,
Or did you laugh so hard that you cried,
When I served my secrets on a silver tray to you,

Dsus2
Heyyyyyy now
           ^
           |-0-----0-----------------|
           |---3-----3---3-----------|
           |-----2-----2-------------|
           |-------------------------|
           |-------------------------|
           |-------------------------|

            D
I guess the night's just bringing my down



Chorus: (strum with eighth notes timing)
           D                G
There's no love, there's no hate,

            D                G
I left them there for you to take,

               D                A           D        
But, know that every word was a piece of my heart,



Bridge: (strum with eighth notes timing)
A                           G
Hush me darling, maybe I've lost my touch,

        A                             G
Maybe I lost my guts - there, is that truth enough,

*back to "Hey now" part*


*special edition* - provided the solo coz I'm in a good mood today
                    and the solo is pretty easy to figure :) Enjoy!!
                    (though it may not be exactly correct, sorry:)
Solo:                  1/2bend
|------------------------------------------------------------------------|
|-----------------------------------------------6-6h7p6--4--6~--6/7-7----|
|--------------------------------6h8----6--6~----------------------------|
|-4~------5/7----7~----7^---7--------------------------------------------|
|------------------------------------------------------------------------|
|------------------------------------------------------------------------|

|------------------------------------------------------------------------|
|-6----------------------------------------------------------------------|
|----6--6~---------------------------------------------------------------|
|------------------------------------------------------------------------|
|------------------------------------------------------------------------|
|------------------------------------------------------------------------|

Courtesy of Brendan Gan - Hope you enjoyed it :)
Wanna talk more bout BJ & other cool music, discuss more bout the guitar,
Peace, God Bless, C'ya
            
Submit corrections

comments powered by Disqus
↑ Back to top | Bon Jovi Jon Tabs for Every Word Was A Piece Of My Heart. Lyrics for acoustic guitar and electric guitar. Tablatures and chords are parodies/interpretations of the original songs. You may use it for private study, scholarship, research or language learning purposes only