» » »

Bon Jovi, You Give Love A Bad Name Tabs (ver.6)

Artists:  A B C D E F G H I J K L M N O P Q R S T U V W X Y Z # 

You Give Love A Bad Name Tabs (ver.6)

Bon Jovi Tabs
 Rating:
4/5 (4 votes)
You Give Love A Bad Name lessons Tabs too difficult? Try these video lessons and learn fast
1
                b = Bend
s = Slide

E||----------------------------------|----------------------------------|
B||-18b-18-16-18b-18-16-----------18b|18-16-18b-1816--------------------|
G||---------------------17--15-17----|-----------------17---------------|
D||----------------------------------|----------------------------------|
A||----------------------------------|----------------------------------|
E||----------------------------------|----------------------------------|


E||----------------------------------|----------------------------------|
B||-18b-18-16-18b-18-16-----------18b|18--------------------------------|
G||---------------------17--15-17----|-----------------17---------------|
D||----------------------------------|----------------------------------|
A||----------------------------------|----------------------------------|
E||----------------------------------|----------------------------------|

E||----------------------------------|----------------------------------|
B||----------------------------------|----------------------------------|
G||----------------------------------|----------------------------------|
D||--------------1-1-----------------|---1-1------------------1-1-------|
A||--3-----1--3-------3--1--3-----1--|3-------3---3-----1--3-------3--1-|
E||-----3----------------------3-----|---------------3------------------|

E||----------------------------------|----------------------------------|
B||4--4--4--4------------------------|----------------------------------|
G||3--3--3--3------------------------|----------------------------------|
D||----------------------------------|----------------------------------|
A||----------------------------------|----------------------------------|
E||----------------------------------|----------------------------------|

E||----------------------------------|----------------------------------|
B||----------------------------------|----------------------------------|
G||----------------------------------|----------------------------------|
D||--------------1-1-----------------|---1-1------------------1-1-------|
A||--3-----1--3-------3--1--3-----1--|3-------3---3-----1--3-------3--1-|
E||-----3----------------------3-----|---------------3------------------|

E||----------------------------------|----------------------------------|
B||----------------------------------|--4--4--4--4----------------------|
G||----------------------------------|--3--3--3--3----------------------|
D||-------------1-1------------------|----------------------------------|
A||-3-----1--3-------3-----3---------|----------------3---33333333------|
E||----3-------------------1---------|----------------1---11111111------|

E||----------------------------------|----------------------------------|
B||----------------------------------|----------------------------------|
G||----------------------------------|----------------------------------|
D||-------------5--------------5-----|-----------8--5-----5-------------|
A||55555555-----3----6----8----3-----|-6----8----6--3-----3----6----8---|
E||33333333----------4----6----------|-4----6------------------4----6---|

E||----------------------------------|----------------------------------|
B||----------------------------------|----4--4--4--4--------------------|
G||----------------------------------|----3--3--3--3--------------------|
D||-5--------------------------1-1---|----------------------------------|
A||-3----6----8----3-----1--3-------3|--1-------------------------------|
E||------4----6-------3--------------|----------------------------------|

E||----------------------------------|----------------------------------|
B||----------------------------------|----------------------------------|
G||----------------------------------|----------------------------------|
D||--------------1-1-----------------|---1-1------------------1-1-------|
A||--3-----1--3-------3--1--3-----1--|3-------3---3-----1--3-------3--1-|
E||-----3----------------------3-----|---------------3------------------|

E||----------------------------------|----------------------------------|
B||----------------------------------|--4--4--4--4----------------------|
G||----------------------------------|--3--3--3--3----------------------|
D||-------------1-1------------------|----------------------------------|
A||-3-----1--3-------3-----3---------|----------------3---33333333------|
E||----3-------------------1---------|----------------1---11111111------|

E||----------------------------------|----------------------------------|
B||----------------------------------|----------------------------------|
G||----------------------------------|----------------------------------|
D||-------------5--------------5-----|-----------8--5-----5-------------|
A||-------------3----6----8----3-----|-6----8----6--3-----3----6----8---|
E||------------------4----6----------|-4----6------------------4----6---|

E||----------------------------------|----------------------------------|
B||----------------------------------|----------------------------------|
G||----------------------------------|----------------------------------|
D||-5--------------------------------|----------------------------------|
A||-3----6----8----------------------|----------------------------------|
E||------4----6----------------------|----------------------------------|

SOLO.. I dont know if its right but here it is ;D

E||----------------------------------|-8686868686868686b-9b---10b-------|
B||----------------------------------|----------------------------------|
G||-0-----5s7--7s8--8s10-10-15-1717--|----------------------------------|
D||----------------------------------|----------------------------------|
A||-------3s5--5s6--6s8--8--13-1515--|----------------------------------|
E||----------------------------------|----------------------------------|

SINGING

E||----------------------------------|----------------------------------|
B||----------------------------------|----------------------------------|
G||----------------------------------|----------------------------------|
D||-------------5--------------5-----|-----------8--5-----5-------------|
A||-------------3----6----8----3-----|-6----8----6--3-----3----6----8---|
E||------------------4----6----------|-4----6------------------4----6---|

E||----------------------------------|----------------------------------|
B||----------------------------------|----------------------------------|
G||----------------------------------|----------------------------------|
D||-5--------------8-3---------------|----------------------------------|
A||-3----6----8----6-5---------------|----------------------------------|
E||------4----6----------------------|----------------------------------|

PLAY THE INTRO AGAIN TO THE END :D
            
Submit corrections

comments powered by Disqus
↑ Back to top | Bon Jovi Tabs for You Give Love A Bad Name. Lyrics for acoustic guitar and electric guitar. 1 Tablatures and chords are parodies/interpretations of the original songs. You may use it for private study, scholarship, research or language learning purposes only