» » »

Bon Jovi, You Give Love A Bad Name Tabs (ver.5)

Artists:  A B C D E F G H I J K L M N O P Q R S T U V W X Y Z # 

You Give Love A Bad Name Tabs (ver.5)

Bon Jovi Tabs
 Rating:
4/5 (4 votes)
You Give Love A Bad Name lessons Tabs too difficult? Try these video lessons and learn fast
1
                Band: Bon Jovi


Intro:
|-----------------------------------------------------------|
|-----------------------------------------------------------|
|-12b-10--8-10/12-10-8----------10/12b-10b--8-10/12-10-8----|
|----------------------10--8-10--------------------------10-|
|-----------------------------------------------------------|
|-----------------------------------------------------------|

|---------------------------------------------|
|---------------------------------------------|
|-12b-10--8-10/12-10-8----------10/12b--10-12-|
|----------------------10--8-10---------------|
|---------------------------------------------|
|---------------------------------------------|


Verse:
|-----------------------------------------------------------------|
|--------------------------------------------------------3b-3b-3b-|
|--------------------------------------------------------5b-5b-5b-|
|-----------------------------------------------------------------|
|-3-----3-66-3--3-----3-66-3--3-----3-66-3--3-----3-66-3----------|
|---3-6-----------3-6-----------3-6-----------3-6-----------------|
   . . . . .. .  . . . . .. .  . . . . .. .  . . . . .. .

|--------------------------------------------------------|
|--------------------------------------------------------|
|--------------------------------------------------------|
|--------------------------------------------------------|
|-3-----3-66-3--3-----3-66-3--3-----3-66-3--3-----3-66-3-|
|---3-6-----------3-6-----------3-6-----------3-6--------|
   . . . . .. .  . . . . .. .  . . . . .. .  . . . . .. .
   
|--------------------------------------------------------|
|--------------------------------------------------------|
|--------------------------------------------------------|
|--------------------------------------------------------|
|-3-----3-66-3--3-----3-66-3--3-----3-66-3--3-----3-66-3-|
|---3-6-----------3-6-----------3-6-----------3-6--------|
   . . . . .. .  . . . . .. .  . . . . .. .  . . . . .. .

|-----|---------------|-----|-----|-------|
|-----|-3333333333333-|-----|-----|-------|
|-----|-5555555555555-|-3~--|-----|-------|
|-3~--|---------------|-3~--|-3~--|-55-55-|
|-3~--|---------------|-1~--|-3~--|-55-55-|
|-1~--|---------------|-----|-1~--|-33-33-|


Chorus:
|---------------------------|----------------------|
|---------------------------|----------------------|
|-5---------------------8-5-|-5--------------------|
|-5--6--6/8--8/10--6-8--8-5-|-5--6--6/8--8/10--6-8-|
|-3--6--6/8--8/10--6-8--6-3-|-3--6--6/8--8/10--6-8-|
|----4--4/6--6/8---4-6------|----4--4/6--6/8---4-6-|


Repeat Verse and Chorus


Solo:
|---------------------|----------------------------|
|---------------------|----------------------------|
|-12b~--12-12-12--3/8-|-5-/7-/8-/10-/12-/14-/16-16-|
|---------------------|----------------------------|
|---------------------|-3-/5-/6-/8--/10-/12-/14-14-|
|---------------------|----------------------------|

|---------------------------------------------------------|
|---------------------------------------------------------|
|-12h14p12h14-16/19--12h14p12h14-16/19--12h14p12h14-16/19-|
|---------------------------------------------------------|
|---------------------------------------------------------|
|---------------------------------------------------------|

|------------------------------------------------------|
|------------------------------------------------------|
|------------------------------------------------10----|
|-10-----------10--13-10-----10-----------10--13-------|
|----13-10--13-----------13-----13-10--13-----------10-|
|------------------------------------------------------|


Repeat Chorus


Outro:
|-----------------------------------------------------------|
|-----------------------------------------------------------|
|-12b-10--8-10/12-10-8----------10/12b-10b--8-10/12-10-8----|
|----------------------10--8-10--------------------------10-|
|-----------------------------------------------------------|
|-----------------------------------------------------------|

|---------------------------------------------|
|---------------------------------------------|
|-12b-10--8-10/12-10-8----------10/12b--10-12-|
|----------------------10--8-10---------------|
|---------------------------------------------|
|---------------------------------------------|
            
Submit corrections

comments powered by Disqus
↑ Back to top | Bon Jovi Tabs for You Give Love A Bad Name. Lyrics for acoustic guitar and electric guitar. 1 Tablatures and chords are parodies/interpretations of the original songs. You may use it for private study, scholarship, research or language learning purposes only