» » »

Bon Jovi, You Give Love A Bad Name Tabs (ver.3)

Artists:  A B C D E F G H I J K L M N O P Q R S T U V W X Y Z # 

You Give Love A Bad Name Tabs (ver.3)

Bon Jovi Tabs
 Rating:
4/5 (4 votes)
You Give Love A Bad Name lessons Tabs too difficult? Try these video lessons and learn fast
                comment: not my favourite song or band but i got the song in me head, don't know
why.... and it slightly scares me
 
Intro
Guitar one 
e|------------|--------------------|------------|--------------------|
b|------------|--------------------|------------|--------------------|
g|10b12-10v-8-|10b12r10-8----------|10b12-10v-8-|10b12r10p8----------|
d|------------|-----------10v-8-10-|------------|-----------10v------|
a|------------|--------------------|------------|--------------------|
e|------------|--------------------|------------|--------------------|

Guitar two
e|------------|--------------------|------------|--------------------|
b|------------|--------------------|------------|--------------------|
g|5-----------|-----------5--------|------------|8----------5--------|
d|5-----6---6-|8--------8-5--------|6-----8-----|8----------5--------|
a|3-----6---6-|8--------8-3--------|6-----8-----|6----------3--------|
e|------4---4-|6--------6----------|4-----6-----|--------------------|

Guitar one
e|------------|--------------------|------------|--------------------|
b|------------|--------------------|------------|--------------------|
g|10b12-10v-8-|10b12r10-8----------|10b12-10v---|--------------------|
d|------------|-----------10v-8-10-|------------|--------------------|
a|------------|--------------------|------------|--------------------|
e|------------|--------------------|------------|--------------------|

Guitar two
e|------------|--------------------|------------|--------------------|
b|------------|--------------------|------------|--------------------|
g|5-----------|-----------5--------|------------|--------------------|
d|5-----6---6-|8--------8-5--------|6-----8-----|--------------------|
a|3-----6---6-|8--------8-3--------|6-----8-----|--------------------|
e|------4---4-|6--------6----------|4-----6-----|--------------------|

Riff A
e|----------------|---------------|----------------|-----------------|
b|----------------|---------------|----------------|8\/8\/8\/8\------|
g|----------------|---------------|----------------|8\/8\/8\/8\------|
d|--------1-1-----|--------1-1----|--------1-1-----|8\/8\/8\/8\------|
a|3---1-3-----3-1-|3---1-3-----3v-|3---1-3-----3-1-|-----------------|
e|--3-------------|--3------------|--3-------------|-----------------|
  P.M.--------------------|	   P.M.-----------| W.B.-----deep diwe

Verse riff
e|----------------|----------------|
b|----------------|----------------|
g|----------------|----------------|
d|--------1-1-----|--------1-1-----|
a|3---1-3-----3-1-|3---1-3-----3v--|
e|--3-------------|--3-------------|
           P.M.--------------------|             
 Play 4 times

Pre chorus
e|----------|------------------|-------------|-----------------------|
b|----------|------------------|----8-8---8-8|\/8\/8\/8\/8-----------|
g|2---------|2\/---------------|----8-8---8-8|\/8\/8\/8\/8-----------|
d|3---------|3\/---------------|/10-8-8---8-8|\/8\/8\/8\/8-----------|
a|3---------|3\/---------------|/10----------|-----------------------|
e|1---------|1\/---------------|-------------|-----------------------|
 	      (W.B.)			      (W.B.)
(W.B dip starts with the second measure)

e|----------|------------------|------------------|------------------|
b|3---------|------3-----------|----------------1-|------------------|
g|3---------|----3-------------|------2b3r2b3r2---|------4b5r4b5r4-5-|
d|3---------|3-3---------------|----3-------------|----5-------------|
a|1---------|1-----------------|--3---------------|--5---------------|
e|----------|------------------|1-----------------|3-----------------|
                  L.R	                   L.R.-|             L.R.-|

Chorus
e|----------------|----------------|----------------|----------------|
b|----------------|----------------|----------------|----------------|
g|5---------------|--------5-------|----------------|8---5-----------|
d|5-----6-------6-|8---8---5-------|6-----8---------|8---5-----------|
a|3-----6-------6-|8---8---3-------|6-----8---------|6---3-----------|
e|------4-------4-|6---6-----------|4-----6---------|----------------|
 Play 2 times

1st ending
e|----------------|----------------|--------|
b|----------------|----------------|--------|
g|----------------|----------------|--------|
d|6-----8---------|----------------|--------|
a|6-----8---------|----------------|--------|
e|4-----6---------|----------------|--------|
L.R.--------------------------------|

2nd ending
e|----------------|----------------|
b|----------------|----------------|
g|----------------|----------------|
d|6-----8---------|----------------|
a|6-----8---------|----------------|
e|4-----6---------|----------------|
L.R------------------------|

Solo
e|---------|-------------|-------------------|----------------------|
b|---------|-------------|-------------------|----------------------|
g|10b12r10-|---8-8-8-8v--|5/7-7/8-8/10-10/12-|12/15-15/17-17~~~~~~~~|
d|---------|10-----------|-------------------|----------------------|
a|---------|-------------|3/5-5/6-6/8--8/10--|10/13-13/15-15~~~~~~~~|
e|---------|-------------|-------------------|----------------------|
		(W.B. vibrato)
   _______________________
  /the length of the trill \
e|----------------|----------------|8-----10--------|
b|11tr8-----------|\/--\/--11b13---|11b13-13b15-----|
g|----------------|----------------|----------------|
d|10#-10#-10#-10#-|----------------|----------------|
a|----------------|----------------|----------------|
e|----------------|----------------|----------------|
 				  U.B.  U.B. 

e|--------------------------------|--------------------------------|
b|--------------------------------|--------------------------------|
g|--------------------------------|--------------------------------|
d|----------1---------------1-3-1-|--------------------------------|
a|3-1---1-3---3-1-3-1---1-3-------|--------------------------------|
e|----3---------------3-----------|3\------------------------------|
  (P.M.---------------------------| W.B. deep dive)

Outro
e|----------------|----------------|----------------|----------------|
b|----------------|----------------|----------------|----------------|
g|----------------|8---5-----------|----------------|8---5-----------|
d|6-----8---------|8---5-----------|6-----8---------|8---5-----------|
a|6-----8---------|6---3-----------|6-----8---------|6---3-----------|
e|4-----6---------|----------------|4-----6---------|----------------|
  (Repeat and fade)

It sounds like the intro but it isn't exactly the same, Richie Sambora Overdubs this part, couldn't really understand it.


Structure:
Riff A
Vers riff 
Pre chorus
Chorus with 1st ending
Riff A
Verse riff 
Pre chorus
Chorus with 2nd ending
Solo
Break (only drums and vocals)
Chorus 
Outro
            
Submit corrections

comments powered by Disqus
↑ Back to top | Bon Jovi Tabs for You Give Love A Bad Name. Lyrics for acoustic guitar and electric guitar. Tablatures and chords are parodies/interpretations of the original songs. You may use it for private study, scholarship, research or language learning purposes only