>
 >
Wild In The Streets 1

Wild In The Streets 1 Guitar Tabs

Bon Jovi - Wild In The Streets 1 chords, tabs, tablatures, lyrics

Guitar lessons | Add/correct | Request | Top 50 tabs Artists:  A B C D E F G H I J K L M N O P Q R S T U V W X Y Z 0-9

Wild In The Streets 1 Guitar Tabs – Bon Jovi

CD, Sheet music, Poster

Do you like Wild In The Streets 1? Share with your friends now
ChordsTabsTabs v2
Wild in the streets guitar tab

I couldnt find a tab for this awesome song anywhere, so I tabbed it out myself. Its 
easy, Im only 14.
Intro:e-------------------------------------------|  x2 but let the
      B----------------------3-3-3----------------|  B5
      G2-2-2-2222-2-2-2-2222-2-2-2-2222-4-4-4-----|  chord ring
      D2-2-2-2222-2-2-2-2222-------2222-4-4-4-----|
      A0-0-0-0000-0-0-0-0000-------0000-2-2-2-----|
      E----------------------------------------12-|
             Pm-        pm-        pm-

Verse:e--------0-----------0-----------0-----------0-] Listen to the
      B----------------------------------------------] verse for
      G-0----0------0----0------1----1------0----0--] timing.
      D-2----2------2----2------2----2------2----2---]
      A3----3----------------------------------------]
      E------------2----2------2----2------2----2----]
w/bar     ~     ~     ~      ~     ~     ~     ~    ~

Pre-
Chorus:e--------------------------------------------| E5 chord is
       B----3-------3-3-------3---------------------| played when the
       G2---2-----2-2-2---2---2-----9999-9-9-999----| drums are played
       D2---------2-------2---------9999-9-9-999----|
       A----------------------------7777-7-7-777----|
       E--------------------------------------------|
        Oh yeah...        Oh yeah...

Chorus=intro (first chorus=1/2intro, second chorus=full intro)

Solo: I dont think that this is 100% correct but it sounds good.

e---------------------------------------------------------------|
B---------------------------------------------------------------|
G1214-14-12-14-14-12-14-14-------------12-14-14-12-14-14-12---|
D-12-14-14-12-14-14-12-14-14-16----14-16-12-14-14-12-14-14-12---|
A-------------------------------16------------------------------|
E---------------------------------------------------------------|

e-----------------------------17-16-14----------17-16-14-|
B--------------------14-15-14----------14-15-14----------|
G-14-14--------------------------------------------------|
D-14-14-16----14-16--------------------------------------|
A----------16--------------------------------------------|
E--------------------------------------------------------|

e-17-16-14-17-16-14----------------------------------------|
B-------------------14-15-14-14-15-14----------------------|
G-------------------------------------12-14-14-12-14-14-12-|
D-------------------------------------12-14-14-12-14-14-12-|
A----------------------------------------------------------|
E----------------------------------------------------------|

e------------------------------------------------------------|
B------------------------------------------------------------|
G-14-14-------------12-14-14-12-14-14-12-14-14---------------|
D-14-14-16----14-16-12-14-14-12-14-14-12-14-14-16----14-16---|
A----------16-------------------------------------16---------|
E------------------------------------------------------------|

e-----------------------------------------17-17-14----14---------14----|
B--------------------------------------------------17----17-14------17-|
G12-14-14-12-14-14-12-14-14---------14-16----------------------16------|
D12-14-14-12-14-14-12-14-14-16-14-16-----------------------------------|
A----------------------------------------------------------------------|
E----------------------------------------------------------------------|

e14--------------------------------------------|
B---17-14--------------------------------------|
G---------16-14----14-14--14-14-14-14-14-14----|
D---------------16--------14-14-14-14-14-14----|
A----------------------------------------------|
E----------------------------------------------|

                              Bridge
e------------------------------------------------------|
B-------------------------------------------------3----|
G2-----------------------2------------------------2----|
D2--------------4--------2--------------------4---0----|
A0--------------4-----/--0--------------------4--------|
E---------------2-----/-----------------------2--------|
   w/b w/b w/b               w/b w/b w/b w/b

Then play the chorus
Play this 8 times then keep playing a5 chord
e---------------------------------------------|      e
B---------------------------------------------|      B
G12-14-14-12-14-14-12-14-14-------------------|      G2
D12-14-14-12-14-14-12-14-14-16----14-16-------|      D2
A------------------------------16-------------|      A0
E---------------------------------------------|      E





Comments


Popular Bon Jovi tabs & chords
Always 4 Chords
I Die For You Chords
In These Arms 2 Chords
Not Running Anymore Chords
Bitter Wine Intro Tabs
Ill Be There For You 3 Tabs
Love Is War Tabs
The Distance Tabs
To The Fire Tabs
Wanted 1 Tabs


Song lyrics



↑ Back to top | Tablatures and chords are parodies/interpretations of the original songs. You may use it for private study, scholarship, research or language learning purposes only
© 2014 AZChords.com Contact us | Privacy policy | DMCA | Add/correct tabs | Request tabs | Top 50 tabs