>
 >
Wild In The Streets

Wild In The Streets Guitar Tabs

Bon Jovi - Wild In The Streets chords, tabs, tablatures, lyrics

Guitar lessons | Add/correct | Request | Top 50 tabs Artists:  A B C D E F G H I J K L M N O P Q R S T U V W X Y Z 0-9

Wild In The Streets Guitar Tabs – Bon Jovi

CD, Sheet music, Poster

Do you like Wild In The Streets? Share with your friends now
ChordsTabsTabs v2


The intro to this song on lead is really easy, its just on the high e string 
It goes like this: 

||---17--12--14--12--10--9-|

It also comes back in the chorus and after the guitar solo. 

the rest of this tab is pretty much the rythym guitar and the solo 



                         PM--|    PM|
    Q.   E +Q   Q    +E  E E E Q  E E   Q.   E +Q   Q
||-----------------|------------------|----------------|
||o----------------|------------------|----------------|
||-----------------|------------------|----------------|
||--2----2-(2)--2--|-(2)--------------|-2----2-(2)--2--|
||o-0----0-(0)--0--|-(0)-0-0-0-0--0-0-|-0----0-(0)--0--|
||-----------------|------------------|----------------|







                     D5                                  B5
      PM--|    PM|                        PM--|    PM|
  +E  E E E Q  E E   Q.   E +Q   Q    +E  E E E Q  E E   Q.   E +Q   Q
|------------------|----------------|------------------|-----------------|
|------------------|----------------|------------------|-----------------|
|------------------|----------------|------------------|-------------4---|
|-(2)--------------|-7----7-(7)--7--|-(7)--------------|-4----4-(4)--4---|
|-(0)-0-0-0-0--0-0-|-5----5-(5)--5--|-(5)-0-0-0-0--0-0-|-2----2-(2)--2---|
|------------------|----------------|------------------|-----------------|


                                    Verse
  1.                 2.
                                     Asus2
  +H       H          H.      Q      Q  E E +H       +W
|-----------------||-------------||----------------|--------|
|----------------o||-------------||o------0-(0)----|-(0)----|
|-(4)-------------||-(4)---------||-----2----------|-(2)----|
|-(4)-------------||-(4)---------||--2-------------|-(2)----|
|-(2)----/14\----o||-(2)---------||o-0-------------|-(0)----|
|-----------------||-------------||----------------|--------|


                                 F#m7add11
                     ~~~
  Q  E E +E  Q.     +W           E E Q  +H       +W
|------------0----|-(0)--------|---------------|--------|
|------0-(0)------|-(0)--------|-----0--(0)----|-(0)----|
|----2------------|-(2)--------|-----2--(2)----|-(2)----|
|-2---------------|-(2)--------|---4----(4)----|-(4)----|
|-0---------------|-(0)--------|-4------(4)----|-(4)----|
|-----------------|------------|---------------|--------|


                                Asus2
  E E Q  +Q   Q    +W           E E E E +H       +W
|-------------0--|-(0)--------|----------------|--------|
|-----0--(0)-----|-(0)--------|-------0-(0)----|-(0)----|
|-----2--(2)-----|-(2)--------|-----2---(2)----|-(2)----|
|---4------------|-(4)--------|---2-----(2)----|-(2)----|
|-4--------------|-(4)--------|-0-------(0)----|-(0)----|
|----------------|------------|----------------|--------|


                                    F#m7add11
  E E E E +E  E +Q     +W           E E E E +H       +W
|-------------0-(0)--|-(0)--------|----------------|--------|
|-------0-(0)---(0)--|-(0)--------|-------0-(0)----|-(0)----|
|-----2---------(2)--|-(2)--------|-----2---(2)----|-(2)----|
|---2-----------(2)--|-(2)--------|---4-----(4)----|-(4)----|
|-0-------------(0)--|-(0)--------|-4-------(4)----|-(4)----|
|--------------------|------------|----------------|--------|


                                      Pre-Chorus
                                       A5   D5
  E E E E +E  E +Q     +H      H       Q.   E +H
|-------------0-(0)--|-(0)-----------|---------------|
|-------0-(0)---(0)--|-(0)-----------|---------------|
|-----2---------(2)--|-(2)-----------|---------------|
|---4-----------(4)--|-(4)-----------|------7-(7)----|
|-4-------------(4)--|-(4)-----------|-7----5-(5)----|
|--------------------|--------14\----|-5-------------|


                   A5   D5
  +H.      +E  E   Q.   E +E  E E E   +H.      +E  E
|----------------|------------------|----------------|
|----------------|------------------|----------------|
|----------------|------------------|----------------|
|-(7)------(7)---|------7-(7)-----7-|-(7)------(7)---|
|-(5)------(5)---|-7----5-(5)-----5-|-(5)------(5)---|
|----------------|-5----------7-5---|----------------|


  A5   D5                        E5
                       TP
  Q.   E +H       +Q   H.        E E E E E E E E
|---------------|--------------|-----------------|
|---------------|--------------|-----------------|
|---------------|--------------|-----------------|
|------7-(7)----|-(7)----------|-----------------|
|-7----5-(5)----|-(5)--x\------|-2-2-2-2---2---2-|
|-5-------------|------x\------|-0-0-0-0---0---0-|


                    Chorus
                  $
                     A5                            Asus2
  E E E E E E E E    Q.   E +Q   Q    +W           E E E E +E  E  Q
|-----------------||----------------|------------|----------------0----|
|-----------------||----------------|------------|-------------0-(0)---|
|-----------------||----------------|------------|-------2-(2)---(2)---|
|-----------------||-2----2-(2)--2--|-(2)--------|-----2---------(2)---|
|---2---2-2-2-2-2-||-0----0-(0)--0--|-(0)--------|-0-0-----------(0)---|
|---0---0-0-0-0-0-||----------------|------------|---------------------|


                 D5                              Bsus4
           PM|                             PM------|
  +H.      E E   Q.   E +Q   Q    +H.      E E   E E E E +E  E Q
|-(0)----------|----------------|--------------|-------0-(0)-------|
|-(0)----------|----------------|--------------|---------------0---|
|-(2)----------|----------------|--------------|-----4-------------|
|--------------|-7----7-(7)--7--|-(7)----------|---4---------4-----|
|----------0-0-|-5----5-(5)--5--|-(5)------0-0-|-2-----------------|
|--------------|----------------|--------------|-------------------|


  1.             2.,3.
                 A5                              Asus2
   ~~~                                     PM|
  +W             Q.   E +Q   Q    +H.      E E   E E E E +H
|-------------||----------------|--------------|-------0-(0)----|
|-(0)--------o||----------------|--------------|-----0---(0)----|
|-------------||----------------|--------------|----------------|
|-(4)---------||-2----2-(2)--2--|-(2)----------|---2-----(2)----|
|------------o||-0----0-(0)--0--|-(0)------0-0-|-0-------(0)----|
|-------------||----------------|--------------|----------------|


                                                        To Coda
                 D5                              Bsus4
           PM|                             PM------|
  +H.      E E   Q.   E +Q   Q    +H.      E E   E E E E +E  E Q
|-(0)----------|----------------|--------------|-------0-(0)-------|
|-(0)----------|----------------|--------------|---------------0---|
|--------------|----------------|--------------|-----4-------------|
|-(2)----------|-7----7-(7)--7--|-(7)----------|---4---------4-----|
|-(0)------0-0-|-5----5-(5)--5--|-(5)------0-0-|-2-----------------|
|--------------|----------------|--------------|-------------------|


              Guitar Solo
  B5           A
               Gtr III
   W           W                                 +W
               |                                  |
               /                                  /

                                                              ~~
  +W           E  S  S  E  E  S  S  E  E  S  S    E  E  E  E  Q   E  E
|------------|---------------------------------|------------------------|
|-(0)--------|---12s14-14-14-12s14-14-14-12s14-|-14-14------------------|
|------------|---12s14-14-14-12s14-14-14-12s14-|-14-14------------------|
|-(4)--------|---------------------------------|-------16----14--16-----|
|------------|---------------------------------|----------16--------16--|
|------------|---------------------------------|------------------------|


  +W                                 +W
   |                                  |
   /                                  /

                                                  ~~
   E  S  S  E  E  S  S  E  E  S  S    E  E  E  E  Q   E  E
|----------------------------------|-----------------------|
|----12s14-14-14-12s14-14-14-12s14-|-14-14-----------------|
|--x-12s14-14-14-12s14-14-14-12s14-|-14-14-----------------|
|--x-------------------------------|-------16----14--16----|
|----------------------------------|----------16--------16-|
|----------------------------------|-----------------------|


  D
  W
  |
  /

  E  S  S  S  S  S  S  S  S  S  S  S  S  S  S
|---------------------------------17p14-------|
|---------15p14-------17p14-------------------|
|---14-14-------14-14-------14-14-------14-14-|
|---------------------------------------------|
|---------------------------------------------|
|---------------------------------------------|


  +W
   |
   /

   S  S  S  S  S  S  S  S  S  S  S  S  S  S  S  S
|--------------------------------------------------|
|-17p14-------15p14-------17p14-------15p14--------|
|-------14-14-------14-14-------14-14-------16p14--|
|--------------------------------------------------|
|--------------------------------------------------|
|--------------------------------------------------|


  Bm
  W                                 +W
  |                                  |
  /                                  /

                                                 ~~
  E  S  S  E  E  S  S  E  E  S  S    E  E  E  E  Q   E E
|---------------------------------|----------------------|
|---12s14-14-14-12s14-14-14-12s14-|-14-14----------------|
|-x-12s14-14-14-12s14-14-14-12s14-|-14-14--------------x-|
|-x-------------------------------|-------16----14--16-x-|
|---------------------------------|----------16----------|
|---------------------------------|----------------------|


  A
  W                                 +W
  |                                  |
  /                                  /

                                                 ~~
  E  S  S  E  E  S  S  E  E  S  S    E  E  E  E  Q   E E
|---------------------------------|----------------------|
|---12s14-14-14-12s14-14-14-12s14-|-14-14----------------|
|-x-12s14-14-14-12s14-14-14-12s14-|-14-14--------------x-|
|-x-------------------------------|-------16----14--16-x-|
|---------------------------------|----------16----------|
|---------------------------------|----------------------|


  +W                                 +W
   |                                  |
   /                                  /

   E  S  S  E  E  S  S  E  E  S  S    E  E  E  E  E      +E   S  S  E
|----------------------------------|----------------------------------|
|----12s14-14-14-12s14-14-14-12s14-|-14-14----------------------------|
|--x-12s14-14-14-12s14-14-14-12s14-|-14-14-------------------14h16-14-|
|--x-------------------------------|-------16-14-16pb17r(16)----------|
|----------------------------------|----------------------------------|
|----------------------------------|----------------------------------|


  D
   W
   |
   /

              |--3--|  |--3--|
   Q      Q   E  E  E  E  E  E
|-17b19--17--14----14-------------|
|---------------17----17p14-------|
|---------------------------16b17-|
|---------------------------------|
|---------------------------------|
|---------------------------------|


                                      Bm
  +W                                   W
   |                                   |
   /                                   /

                             ~~
   |--3--|
   E  E  E  S     +S   S  S  Q  E E    E S S E  E S S E  E S S
|-14--------------------------------|--9--------9--------9-----|
|----17p14--------------------------|-10-x-x-x-10-x-x-x-10-x-x-|
|----------16b17r(16)p14----14------|--9-x-x-x--9-x-x-x--9-x-x-|
|------------------------16-----0-0-|--------------------------|
|-----------------------------------|--------------------------|
|-----------------------------------|--------------------------|


                         Bridge
                          N.C.(A)
  +W                      W           W            W
   |
   /

                                                   \1.5/    \1.5/       \1.5/
   E  E S S E  Q   E  E   W          +W           +Q.      +E     +Q   +Q
|----10-----------10-10-|----------|------------|------------------------------|
|--x-10-x-x-x-10--10-10-|----------|------------|------------------------------|
|--x-11-x-x-x-11--11-11-|----------|------------|------------------------------|
|------------------0--0-|-2--------|-(2)--------|-(2)------(2)----(2)--(2)-----|
|-----------------------|-0--------|-(0)--------|-(0)------(0)----(0)--(0)-----|
|-----------------------|----------|------------|------------------------------|


                  F#5
          \2
  +H     +H       W          +W           +W
|---------------|----------|------------|--------|
|---------------|----------|------------|--------|
|---------------|----------|------------|--------|
|-(2)----(2)----|----------|------------|--------|
|-(0)----(0)----|-4--------|-(4)--------|-(4)----|
|---------------|-2--------|-(2)--------|-(2)----|


              A5
                                       \1.5/    \1.5/       \1.5/
  TP
  W           W          +W           +Q.      +E     +Q   +Q
|-----------|----------|------------|-------------------------------|
|-----------|----------|------------|-------------------------------|
|-----------|----------|------------|-------------------------------|
|-----------|-2--------|-(2)--------|-(2)------(2)----(2)--(2)------|
|-x\--------|-0--------|-(0)--------|-(0)------(0)----(0)--(0)------|
|-x\--------|----------|------------|-------------------------------|


                                                 D.S. al Coda
                     F#5                     D5
   \1.5/     \2
  +H        +H       W          +W           W           +W
|------------------|----------|------------|-----------|---------||
|------------------|----------|------------|-3---------|-(3)-----||
|------------------|----------|------------|-2---------|-(2)-----||
|-(2)-------(2)----|----------|------------|-0---------|-(0)-----||
|-(0)-------(0)----|-4--------|-(4)--------|-----------|---------||
|------------------|-2--------|-(2)--------|-----------|---------||
|
| Gtr II
|  W                 W          +W           W            W
|------------------|----------|------------|-----------|---------||
|------------------|----------|------------|-----------|---------||
|------------------|-6--------|-(6)--------|-----------|---------||
|------------------|-4--------|-(4)--------|-----------|---------||
|------------------|----------|------------|-x\--------|---------||
|------------------|----------|------------|-x\--------|---------||


 Out-Chorus
  &
               A5
                                                          PM|       PM|
   W           Q.           E +Q        Q         +Q      E  E  Q   E E
|------------|----------------------------------|------------------------|
|-(0)--------|----------------------------------|------------------------|
|------------|----------------------------------|------------------------|
|-(4)--------|-2------------2-(2)-------2-------|-(2)--------------------|
|------------|-0------------0-(0)-------0-------|-(0)-----0--0--0---0-0--|
|------------|----------------------------------|------------------------|
|
|  >
|  \4
|  W           E   S  S  E  E  S  S  E  E  S  S    E   E  E  E  Q   E E
|------------|----------------------------------|------------------------|
|------------|----12s14-14-14-12s14-14-14-12s14-|-14--14-----------------|
|------------|----12s14-14-14-12s14-14-14-12s14-|-14--14-----------------|
|------------|----------------------------------|--------16----14--16----|
|--0---------|----------------------------------|-----------16-----------|
|------------|----------------------------------|------------------------|


                                             PM|       PM|
  Q.           E +Q        Q         +Q      E  E  Q   E E
|----------------------------------|-----------------------|
|----------------------------------|-----------------------|
|----------------------------------|-----------------------|
|-2------------2-(2)-------2-------|-(2)-------------------|
|-0------------0-(0)-------0-------|-(0)-----0--0--0---0-0-|
|----------------------------------|-----------------------|
|
| E   S  S  E  E  S  S  E  E  S  S    E   E  E  E  Q   E E
|----------------------------------|-----------------------|
|----12s14-14-14-12s14-14-14-12s14-|-14--14----------------|
|----12s14-14-14-12s14-14-14-12s14-|-14--14----------------|
|----------------------------------|--------16----14--16---|
|----------------------------------|-----------16----------|
|----------------------------------|-----------------------|


  D5
  Q.           E +Q        Q
|-----------------------------------|
|-----------------------------------|
|-2------------2-(2)-------2--------|
|-0------------0-(0)-------0--------|
|-----------------------------------|
|-----------------------------------|
|
| E   S  S  E  E  S  S  E  E  S  S
|-----------------------------------|
|----12s14-14-14-12s14-14-14-12s14--|
|----12s14-14-14-12s14-14-14-12s14--|
|-----------------------------------|
|-----------------------------------|
|-----------------------------------|


       PM---|       PM|
  +E   E  E  E  Q   E E
|-----------------------|
|-----------------------|
|-(2)-------------------|
|-(0)-------------------|
|------0--0--0--0---0-0-|
|-----------------------|
|
|  E   E  E  E  Q   E E
|-----------------------|
|-14--14----------------|
|-14--14----------------|
|--------16----14--16---|
|-----------16----------|
|-----------------------|


  B5
  Q.           E +Q        Q         +E   E  E  E  Q   E E
|----------------------------------|------------------------|
|----------------------------------|------------------------|
|----------------------------------|------------------------|
|-4------------4-(4)-------4-------|-(4)--------------------|
|-2------------2-(2)-------2-------|-(2)--------------------|
|----------------------------------|------2--2--2--2---2-2--|
|
| E   S  S  E  E  S  S  E  E  S  S    E   E  E  E  Q   E E
|----------------------------------|------------------------|
|----12s14-14-14-12s14-14-14-12s14-|-14--14-----------------|
|----12s14-14-14-12s14-14-14-12s14-|-14--14-----------------|
|----------------------------------|--------16----14--16----|
|----------------------------------|-----------16-----------|
|----------------------------------|------------------------|


  A5
                                             PM|       PM|
  Q.           E +Q        Q         +Q      E  E  Q   E E
|----------------------------------|-----------------------|
|----------------------------------|-----------------------|
|----------------------------------|-----------------------|
|-2------------2-(2)-------2-------|-(2)-------------------|
|-0------------0-(0)-------0-------|-(0)-----0--0--0---0-0-|
|----------------------------------|-----------------------|
|
| E   S  S  E  E  S  S  E  E  S  S    E   E  E  E  Q   E E
|----------------------------------|-----------------------|
|----12s14-14-14-12s14-14-14-12s14-|-14--14----------------|
|----12s14-14-14-12s14-14-14-12s14-|-14--14----------------|
|----------------------------------|--------16----14--16---|
|----------------------------------|-----------16----------|
|----------------------------------|-----------------------|


  Q.           E +Q        Q
|-----------------------------------|
|-----------------------------------|
|-----------------------------------|
|-2------------2-(2)-------2--------|
|-0------------0-(0)-------0--------|
|-----------------------------------|
|
| E   S  S  E  E  S  S  E  E  S  S
|-----------------------------------|
|----12s14-14-14-12s14-14-14-12s14--|
|----12s14-14-14-12s14-14-14-12s14--|
|-----------------------------------|
|-----------------------------------|
|-----------------------------------|


          PM|       PM|
  +Q      E  E  Q   E E
|-----------------------|
|-----------------------|
|-----------------------|
|-(2)-------------------|
|-(0)-----0--0--0---0-0-|
|-----------------------|
|
|  E   E  E  E  Q   E E
|-----------------------|
|-14--14----------------|
|-14--14----------------|
|--------16----14--16---|
|-----------16----------|
|-----------------------|


  D5
                                             PM|
  Q.           E +Q        Q         +Q      E  E  Q   Q
|----------------------------------|------------------------|
|----------------------------------|------------------------|
|----------------------------------|------------------------|
|-7------------7-(7)-------7-------|-(7)--------------------|
|-5------------5-(5)-------5-------|-(5)-----0--0--0---0----|
|----------------------------------|------------------------|
|
| E   S  S  E  E  S  S  E  E  S  S    E   E  E  E  Q   E E
|----------------------------------|------------------------|
|----12s14-14-14-12s14-14-14-12s14-|-14-----17--------------|
|----12s14-14-14-12s14-14-14-12s14-|-----14-----------------|
|----------------------------------|--------------14--16----|
|----------------------------------|-----------16-----------|
|----------------------------------|------------------------|


                                                              H.=H
  B5                                                          A5
  Q.           E +Q        Q         +E   Q.        Q   Q      W
|----------------------------------|------------------------|--------|
|----------------------------------|------------------------|--------|
|----------------------------------|------------------------|--------|
|-4------------4-(4)-------4-------|-(4)--4---------4---4---|--2-----|
|-2------------2-(2)-------2-------|-(2)--2---------2---2---|--0-----|
|----------------------------------|------------------------|--------|
|
|                                                              ~~~
| E   S  S  E  E  S  S  E  E  S  S    E   E   E  E  Q   E E    W
|----------------------------------|------------------------|--------|
|----12s14-14-14-12s14-14-14-12s14-|-14--14-----------------|--------|
|----12s14-14-14-12s14-14-14-12s14-|-14--14-----------------|-(2)----|
|----------------------------------|---------16----14--16---|-(2)----|
|----------------------------------|------------16----------|-(0)----|
|----------------------------------|------------------------|--------|


                                       Q=40
   \2                    \2.5_____/
  +W                     H        Q  Q
|----------------------|----------------*|
|----------------------|----------------*|
|----------------------|----------------*|
|-(2)------------------|----------2-----*|
|-(0)------------------|-0--------0-----*|
|----------------------|----------------*|
|
|                  ~~~~
| +H     E  E     +Q     H.          Q
|----------------------|----------------*|
|----------------------|----------------*|
|-(2)----2s22b24-(22)--|----------------*|
|-(2)------------------|-------------2--*|
|-(0)------------------|-x\----------0--*|
|----------------------|-x\-------------*|


And thats pretty much it, the immense ending song to one of the greatest classic 
rock albums EVER. Bon JOvi forever!! 


Tablature Legend
----------------
 h   - hammer-on
 p   - pull-off
 b   - bend
 pb  - pre-bend
 r   - bend release (if no number after the r, then release immediately)
 /\  - slide into or out of (from/to "nowhere")
 s   - legato slide
 S   - shift slide
  - natural harmonic
[n]  - artificial harmonic
n(n) - tapped harmonic
 ~   - vibrato





Comments


Popular Bon Jovi tabs & chords
Livin On A Prayer 1 Chords
Lonely Chords
She Is A Mystery Chords
What About Now Chords
Blaze Of Glory 2 Tabs
I Could Make A Living Out Of Loving You Intro Tabs
Never Say Goodbye 2 Tabs
Outlaws Of Love Tabs
This Ain't A Love Song Tabs
To The Fire Tabs


Song lyrics



↑ Back to top | Tablatures and chords are parodies/interpretations of the original songs. You may use it for private study, scholarship, research or language learning purposes only
© 2014 AZChords.com Contact us | Privacy policy | DMCA | Add/correct tabs | Request tabs | Top 50 tabs