» » »

Bon Jovi, We Got It Going On Tabs (ver.2)

Artists:  A B C D E F G H I J K L M N O P Q R S T U V W X Y Z # 

We Got It Going On Tabs (ver.2)

Bon Jovi Tabs
Rating:
0/5 (0 votes)
We Got It Going On lessons Tabs too difficult? Try these video lessons and learn fast
                Hi, well, there absolutely no good tabs for this song, and it is a really cool song.

All guitars tuned E string down to C, keep the rest standard.

Guitar I = Talkbox/ Distortion
Guitar II = Clean

Intro - Guitar II (x4)

-----------------------------------------------------|
-----------------------------------------------------|
-----------------------------------------------------|
-----------------------------------------------------|
---3-------------------------------------------------|
-0---0--5b6--3-0-------------------------------------|

Intro - Guitar I (x4)

-----------------------------------------------------|
-----------------------------------------------------|
-----------------------------------------------------|
---5-------------------------------------------------|
---3-------------------------------------------------|
-0---0--5b6--3-0-------------------------------------|

Verse - Guitar I (talkbox)(x2)

-----------------------------------------------------|
-----------------------------------------------------|
-----------------------------------------------------|
---5-5--x-x--5-5-------------------------------------|
---3-3--x-x--3-3-------------------------------------|
-----------------------------------------------------|

Pre-Chorus - Guitar I

-----------------------------------------------------|
-----------------------------------------------------|
-----------------------------------------------------|
-----------------------------------------------------|
-----------------------------------------------------|
--555555555555/88888888888888------------------------|

Harmonics - Guitar I

This part, I'm going to tab regularly, but you play it with natural harmonics.
-----------------------------------------------------|
-----------------------------------------------------|
-----------------------------------------------------|
-----------------------------------------------------|
-----------------------------------------------------|
---6/5/4/3/2-----------------------------------------|

Chorus - All guitars

We got it . . .
-----------------------------------------------------|
-----------------------------------------------------|
--5--3-5---3-5--8----8-8-8-8-8---10-10---13-13-------|
--5--3-5---3-5--8----8-8-8-8-8---10-10---13-13-------|
--3--1-3---1-3--6----6-6-6-6-6---8--8----11-11-------|
-----------------------------------------------------|

Ah ah ah . . .

-----------------------------------------------------|
-----------------------------------------------------|
--5-5---8-8---10-10----------------------------------|
--5-5---8-8---10-10----------------------------------|
--3-3---6-6---8--8-----------------------------------|
-----------------------------------------------------| . . . Back to intro

Pre-Solo - Guitar I
(repeat however much needed)
-------------------------------------------------|
-------------------------------------------------|
-------------------------------------------------|
-------------------------------------------------|
--------------------------------1/3--------------|
--3-4-5-3-4-5-3-4-5-3-4-5-3-4-5------------------|

Solo - Guitar I

I spent a lot of time trying to figure it out, hope you guys like it.

-------------------------------------------------8-----------8------8-------|
--------------------------------11b13--8-11b13-----11-8----8--11b13---11-8--|
-10b-10b-8-10-10b10-8----8-----------------------------10-------------------|
----------------------10---10-----------------------------------------------|
----------------------------------------------------------------------------|
----------------------------------------------------------------------------|

-11b13-11--8-----------8--------------13b15-|
-------------11-8----8---11-8---------------|
------------------10----------10b-8---------|
--------------------------------------------|
--------------------------------------------|
--------------------------------------------|

-15-15-15-15-15-15-15-15-15-15-15--|
-----------------------------------|
-----------------------------------|
-----------------------------------|
-----------------------------------|
-----------------------------------|


13-------10-------------------------------|(not sure about this one)
---13-10----------------------------------|
------------------------------------------|
------------------------------------------|
------------ (repeat that riff around 4-6-| times, depending on HOW you play it)

---------------------------11-----11-------------------|
13-11---------------------------------------------8-11-| (trill this)
------12-10-8h10p8----8-10b---8-10b--8-10b10-8---------|
-------------------10--------------------------10------|
-------------------------------------------------------|
-------------------------------------------------------|

Oh, and another thing, something that sounds REALLY good is on the very last riff (trill 
8 to 11), it sounds awsome if you take your pick and slide it on the same string from 
13-19 fret, like in You Give Love a Bad Name


Well, here you go, sorry about seperating the solo in so many section, I hope that 
confuse you. Constructive criticism or comments are VERY welcome. Any questions please e-mail 
            
Submit corrections

comments powered by Disqus
↑ Back to top | Bon Jovi Tabs for We Got It Going On. Lyrics for acoustic guitar and electric guitar. Tablatures and chords are parodies/interpretations of the original songs. You may use it for private study, scholarship, research or language learning purposes only