» » »

Wanted Tabs (ver.5)

Artists:  A B C D E F G H I J K L M N O P Q R S T U V W X Y Z # 

Wanted Tabs (ver.5)

Bon Jovi
Rating:
0/5 (0 votes)
Tabs too difficult? Try these video lessons and learn fast.
                I'm "Wanted Solo"

By Richie Sambora (of John Bongiovi's band, whats the name of it?)




Solo: 
 (2:42)                        Pinch Harmonics    
E----------------------------------------------|
B----------------------------------------------|
G--------5-7---7-5--7v-------------------------|
D-12\--------------------------5b7-5b-5b-5b-r3-|
A--------3/5---5-3-/5v---3--5------------------|
E-10\------------------------------------------|
                                                  PH   
E-------------13h15---15bvv-15-13-15b17vvvv-----------------------------|
B-------13h15-----------------------------------------------------------|
G-12h14----------------------------------------------------------5-/7vv-|
D--------------------------------------------------5b-------7-5--5-/7vv-|
A--------------------------------------------0--0------0--0-5-3--3-/5vv-|
E-----------------------------------------------------------------------|
            
E-----------------------------------------------------------|
B-----------------------------------------------------------|
G---------PH---------PH=======|-----------------PH=======|--|
D---------3----------3--5-5--3-----0-3-0--------3-5--5-3vv--|
A-x--3-5-----5--3-5-----------------------3-0-5-------------|
E-----------------------------------------------------------|

                             PH                         PM------------|  
E-------------------------------------------------------------------------|
B------------13------------------13-------------PH====|-------------------|
G-10--12b14-----12b14-10--12b14-----12b-12-10vv(10)vv---5-5-/7---10-10--7-|
D-------------------------------------------------------5-5-/7---10-10--7-|
A-------------------------------------------------------3-3-/5---8--8---5-|
E-------------------------------------------------------------------------|
            
Tabs too difficult? Try these video lessons and learn fast.


comments powered by Disqus
↑ Back to top | Tablatures and chords are parodies/interpretations of the original songs. You may use it for private study, scholarship, research or language learning purposes only