» » »

Wanted Dead Or Alive Tabs (ver.2)

Artists:  A B C D E F G H I J K L M N O P Q R S T U V W X Y Z # 

Wanted Dead Or Alive Tabs (ver.2)

Bon Jovi
Rating:
0/5 (0 votes)

Hard to play? Try these video lessons and learn fast.
                (Intro)
E|----------13--------------------12------------------10---------------------8------------
B|-----------------------------------------------------------------------------------------
G|------14-----14-----------12-------12--------10--------10-----------9-------9----------
D|---0-------------------0-------------------0---------------------0----------------------
A|----------------------------------------------------------------------------------------
E|----------------------------------------------------------------------------------------

E|-----------5----------------------3----------------|
B|----------------------------------------------------|
G|-----5--------5-------------4---------4-----------|I don’t know the rest
D|-0--------------------0----------------------------|
A|----------------------------------------------------|
E|----------------------------------------------------|
            
Hard to play? Try these video lessons and learn fast. | Correct




comments powered by Disqus
↑ Back to top | Tablatures and chords are parodies/interpretations of the original songs. You may use it for private study, scholarship, research or language learning purposes only