>
 >
Unbreakable

Unbreakable Guitar Tabs

Bon Jovi - Unbreakable chords, tabs, tablatures, lyrics

Guitar lessons | Add/correct | Request | Top 50 tabs Artists:  A B C D E F G H I J K L M N O P Q R S T U V W X Y Z 0-9

Unbreakable Guitar Tabs – Bon Jovi

CD, Sheet music, Poster

Do you like Unbreakable? Share with your friends now
Tabs
Tuning:Drop D

Im pretty sure this is right. Cheers to the guy who did the power tab, thats where i got 
solo. I just rewrote it for any one who doesnt have power tab editor. Im at 
for comments.


Intro/Verse
|-----------------------------------------------------------------|
|-----------------------------------------------------------------|
|-----------------------------------------------------------------|
|--10-----10--13---6------6---5---3------3---1---5/6---6---6---5--|
|--10-----10--13---6------6---5---3------3---1---5/6---6---6---5--|
|--10-----10--13---6------6---5---3------3---1---5/6---6---6---5--|

Pre Chorus
|-----------------------------------------------------------------|
|-----------------------------------------------------------------|
|-----------------------------------------------------------------|
|--6---------------3---------------5---------------8--------------|
|--6--x8-----------3--x8-----------5--x8-----------8--x8----------|
|--6---------------3---------------5---------------8--------------|

CHORUS
|-----------------------------------------------------------------|
|-----------------------------------------------------------------|
|-----------------------------------------------------------------|
|--10--------------13--------------6---------------5-------8------|
|--10--x8----------13-x8---------6--x8-----------5--x4---8--x4--|
|--10--------------13-------------6---------------5-------8------|

Solo
|-----------------------------------------------------------------|
|-----------------------------------------------------------------|
|--5--(5)-3p0-5--(5)-3p0-3-5-5-(5)/-------------------------------|
|-----------------------------------------------1-1-3-3fb(3)p1----|
|---------------------------------------1-1---3----------------3--|
|-----------------------------------x-5-----5---------------------|

|----------------------------------------------------------|
|----------------------------------------------------------|
|------3-----3--------------5--5p3-0-3-5-5fb5-3------------|
|--4/5---4/5---5-(5)---5-5----------------------5-4-3-1qb--|
|----------------------------------------------------------|
|----------------------------------------------------------|

|-----------------------------------------------------------|
|-----------------------------------------------------------|
|-----------------------------------------------3-----------|
|----------1h2p1---1-3p1-3qb--3qb-3qb-3hb-3p1---3-1---------|
|--3-1-2-3-------3----------------------------3-----3-3-3/--|
|-----------------------------------------------------------|

|--------------------------------------|
|--------------------------------------|
|--------------------------------------|
|------------1-3-3hb-3p1-3fb-5-5--1----|
|--------1-3------------------------3--|
|--3-4-5-------------------------------|

|--------------------------------------------------------------------------|
|--------------------------------------------------------------------------|
|--5-5/7-7-7/8-8-8/10-10-10/12-12-12-12-12/15-15-15/17-17-17/19-19----x-x--|
|---------------------------------------------------------------------x-x--|
|--3-3/5-5-5/6-6-6/8--8--8-/10-10-10-10-10/13-13-13/15-15-15/17-17-17------|
|--------------------------------------------------------------------------|

|-------8-----------8-----------8-----------8-------|
|--11fb---11p8-11fb---11p8-11fb---11p8-11fb---11p8--|
|---------------------------------------------------|
|---------------------------------------------------|
|---------------------------------------------------|
|---------------------------------------------------|

|------------------------------|
|------------------------10-8--|
|--10hb10-8----8-10-8----10-8--|
|-----------10--------10-------|
|------------------------------|
|------------------------------|

CHORUS 2
|-----------------------------------------------------------------|
|-----------------------------------------------------------------|
|-----------------------------------------------------------------|
|--10--------------13--------------6---------------5-------8------|
|--10--------------13------------6---------------5--x4---8--x4--|
|--10--------------13-------------6---------------5-------8------|

ORDER

Intro/Verse x3
Pre Chorus
CHORUS x2
Intro/Verse x3
Pre Chorus
CHORUS x2
Intro/Verse
Solo
Pre Chorus
CHORUS 2
CHORUS x3
Intro/Verse x2





Comments


Popular Bon Jovi tabs & chords
I Wanna Be Loved Bass Tabs
Bed Of Roses Chords
Complicated Chords
Lost Highways Chords
Without Love Chords
Bad Medicine Tabs
Dirty Little Secret Tabs
If I Was Your Mother Tabs
Who Says You Cant Go Home 4 Tabs
Gotta Have A Reason Ukulele


Song lyrics



↑ Back to top | Tablatures and chords are parodies/interpretations of the original songs. You may use it for private study, scholarship, research or language learning purposes only
© 2014 AZChords.com Contact us | Privacy policy | DMCA | Add/correct tabs | Request tabs | Top 50 tabs