» » »

Unbreakable Tabs (ver.1)

Artists:  A B C D E F G H I J K L M N O P Q R S T U V W X Y Z # 

Unbreakable Tabs (ver.1)

Bon Jovi
Rating:
0/5 (0 votes)

Hard to play? Try these video lessons and learn fast.
                Tuning:Drop D

Im pretty sure this is right. Cheers to the guy who did the power tab, thats where i got 
solo. I just rewrote it for any one who doesnt have power tab editor. Im at 
for comments.


Intro/Verse
|-----------------------------------------------------------------|
|-----------------------------------------------------------------|
|-----------------------------------------------------------------|
|--10-----10--13---6------6---5---3------3---1---5/6---6---6---5--|
|--10-----10--13---6------6---5---3------3---1---5/6---6---6---5--|
|--10-----10--13---6------6---5---3------3---1---5/6---6---6---5--|

Pre Chorus
|-----------------------------------------------------------------|
|-----------------------------------------------------------------|
|-----------------------------------------------------------------|
|--6---------------3---------------5---------------8--------------|
|--6--x8-----------3--x8-----------5--x8-----------8--x8----------|
|--6---------------3---------------5---------------8--------------|

CHORUS
|-----------------------------------------------------------------|
|-----------------------------------------------------------------|
|-----------------------------------------------------------------|
|--10--------------13--------------6---------------5-------8------|
|--10--x8----------13-—x8--------—-6--x8-----------5--x4---8--x4--|
|--10--------------13—-------------6---------------5-------8------|

Solo
|-----------------------------------------------------------------|
|-----------------------------------------------------------------|
|--5--(5)-3p0-5--(5)-3p0-3-5-5-(5)/-------------------------------|
|-----------------------------------------------1-1-3-3fb(3)p1----|
|---------------------------------------1-1---3----------------3--|
|-----------------------------------x-5-----5---------------------|

|----------------------------------------------------------|
|----------------------------------------------------------|
|------3-----3--------------5--5p3-0-3-5-5fb5-3------------|
|--4/5---4/5---5-(5)---5-5----------------------5-4-3-1qb--|
|----------------------------------------------------------|
|----------------------------------------------------------|

|-----------------------------------------------------------|
|-----------------------------------------------------------|
|-----------------------------------------------3-----------|
|----------1h2p1---1-3p1-3qb--3qb-3qb-3hb-3p1---3-1---------|
|--3-1-2-3-------3----------------------------3-----3-3-3/--|
|-----------------------------------------------------------|

|--------------------------------------|
|--------------------------------------|
|--------------------------------------|
|------------1-3-3hb-3p1-3fb-5-5--1----|
|--------1-3------------------------3--|
|--3-4-5-------------------------------|

|--------------------------------------------------------------------------|
|--------------------------------------------------------------------------|
|--5-5/7-7-7/8-8-8/10-10-10/12-12-12-12-12/15-15-15/17-17-17/19-19----x-x--|
|---------------------------------------------------------------------x-x--|
|--3-3/5-5-5/6-6-6/8--8--8-/10-10-10-10-10/13-13-13/15-15-15/17-17-17------|
|--------------------------------------------------------------------------|

|-------8-----------8-----------8-----------8-------|
|--11fb---11p8-11fb---11p8-11fb---11p8-11fb---11p8--|
|---------------------------------------------------|
|---------------------------------------------------|
|---------------------------------------------------|
|---------------------------------------------------|

|------------------------------|
|------------------------10-8--|
|--10hb10-8----8-10-8----10-8--|
|-----------10--------10-------|
|------------------------------|
|------------------------------|

CHORUS 2
|-----------------------------------------------------------------|
|-----------------------------------------------------------------|
|-----------------------------------------------------------------|
|--10--------------13--------------6---------------5-------8------|
|--10--------------13-—----------—-6---------------5--x4---8--x4--|
|--10--------------13—-------------6---------------5-------8------|

ORDER

Intro/Verse x3
Pre Chorus
CHORUS x2
Intro/Verse x3
Pre Chorus
CHORUS x2
Intro/Verse
Solo
Pre Chorus
CHORUS 2
CHORUS x3
Intro/Verse x2
            
Hard to play? Try these video lessons and learn fast. | Correct




comments powered by Disqus
↑ Back to top | Tablatures and chords are parodies/interpretations of the original songs. You may use it for private study, scholarship, research or language learning purposes only