» » »

Bon Jovi, Tokyo Road Tabs (ver.1)

Artists:  A B C D E F G H I J K L M N O P Q R S T U V W X Y Z # 

Tokyo Road Tabs (ver.1)

Bon Jovi Tabs
 Rating:
4/5 (4 votes)
Tokyo Road lessons Tabs too difficult? Try these video lessons and learn fast
                Tuning: Standard Tuning

b    = bend (whole step)
b^   = bend (1/2 step)
b^^  = bend (1 1/2 steps)
~    = Vibrato


Keyboard Intro

Guitar Intro 0.48
e|-------------------------------------------------------------------------|
B|----3--3--3--3--3--3---1--1--1--1--1-------------------------------------|
G|----5--5--5--5--5--4---3--3--3--3--3----5--5--3--------------------------|
D|----5--5--5--5--5--5---3--3--3--3--3----5--5--5--5~----------------------|
A|-------------------------------------------------------------------------|
E|-------------------------------------------------------------------------|

Play intro x 2

Verse 1.04
e|-------------------------------------------------------------------------|
B|-------------------------------------------------------------------------|
G|-------------------------------------------------5---3-------------------|
D|------------------------------------------------5---3----3---------------|
A|-------------------------------------------------------------------------|
E|--3-3-3-3-3-3-3-3-3-3-3-3-3-3-3-3-3-3-3-3-3--3-----1---------------------|

e|-------------------------------------------------------------------------|
B|--1----1-----1-----1-----------------------------------------------------|
G|---0-----0-----0------0--------------------------------------------------|
D|-----3-----3-----3------------5----3-------------------------------------|
A|---------------------------------------------7-----5---------------------|
E|------------------------3---3-----------3--3----3-----5^^--3-------------|

Play vers x 2

Pre chours 1.34
e|-------------------------------------------------------------------------|
B|-------------------------------------------------------------------------|
G|-------------------------------------------------------------------------|
D|--------3------------5-5-4-4---------------------------------------------|
A|--3-----5---------------------5-5-3-3------------------------------------|
E|--1----------------------------------------------------------------------|

Chours 1.44
e|-------------------------------------------------------------------------|
B|----3--3--3--3--3--3---1--1--1--1--1-------------------------------------|
G|----5--5--5--5--5--4---3--3--3--3--3----5--5--3--------------------------|
D|----5--5--5--5--5--5---3--3--3--3--3----5--5--5--5~----------------------|
A|-------------------------------------------------------------------------|
E|-------------------------------------------------------------------------|

Play Chours x 2

Verse
Pre Chours
Chours x 4

Pre solo 3.07
e|-------------------------------------------------------------------------|
B|-------------------------------------------------------------------------|
G|-3-3---3-3---3-3--3--3--3------------------------------------------------|
D|-3-3---3-3---3-3--3--3--3------------------------------------------------|
A|-1-1---1-1---1-1--1--1--1------------------------------------------------|
E|-------------------------------------------------------------------------|

Guitar Solo 3.10
e|----------------------------------------------------------------3--6-----|
B|-6-6-6-6-6-6-6-6-6-6-6-6-6-6-6-6-6-6-6-------------------3--6------------|
G|-7-7-7-7-7-7-7-7-7-7-7-7-7-7-7-7-7-7-7----5--5-5-3-5---------------------|
D|-------------------------------------------------------------------------|
A|-------------------------------------------------------------------------|
E|-------------------------------------------------------------------------|

e|--------------------------------------------15-18-15-15-15-18-15-18-15-15|
B|--3--6b^^-6----3(6)--3(6)--3(6)--6(3)------------------------------------|
G|-------------------------------------------------------------------------|
D|-------------------------------------------------------------------------|
A|-------------------------------------------------------------------------|
E|-------------------------------------------------------------------------|

e|-------------------------------------------------------------------------|
B|-18-15-18-15-18-15-18-15-18-15-18--------------18------------------------|
G|----------------------------------17-------15------15--------------------|
D|-------------------------------------------------------------------------|
A|-------------------------------------------------------------------------|
E|-------------------------------------------------------------------------|

e|-13(15)--12(13)--10(12)--8(10)---8---15-------------------------18^^-----|
B|------------------------------------------18b^^18--15--18b^^18-----------|
G|-------------------------------------------------------------------------|
D|-------------------------------------------------------------------------|
A|-------------------------------------------------------------------------|
E|-------------------------------------------------------------------------|

e|-15----18b^^-18----------------------------------------------------------|
B|---15--------------------------------------------------------------------|
G|-------------------------------------------------------------------------|
D|-----------------------------------------------15-16-17-15-16-17---------|
A|----------------------------15-16-17-15-16-17----------------------------|
E|------------------15-17-18-----------------------------------------------|

e|----------------------------------15--15--15--15--15--15--15--15--15-----|
B|-----------------------15-16-17------------------------------------------|
G|---15-16-17-15-16-17-----------------------------------------------------|
D|-------------------------------------------------------------------------|
A|-------------------------------------------------------------------------|
E|-------------------------------------------------------------------------|

Bridge 3.53
e|-------------------------------------------------------------------------|
B|---5-------5-------------------------------------------------------------|
G|-----5------5-----3------------------------------------------------------|
D|-------5-----5----3------------------------------------------------------|
A|-------------------------------------------------------------------------|
E|-------------------------------------------------------------------------|

Bridge x 8

Pre solo
Chours 

Sry i did not have time for the fading solo ! Maybe next time !

This tab is 100 procent correct ! Enjoy !
            
Submit corrections

comments powered by Disqus
↑ Back to top | Bon Jovi Tabs for Tokyo Road. Lyrics for acoustic guitar and electric guitar. Tablatures and chords are parodies/interpretations of the original songs. You may use it for private study, scholarship, research or language learning purposes only