» » »

Bon Jovi, Thorn In My Side Bass tabs (ver.1)

Artists:  A B C D E F G H I J K L M N O P Q R S T U V W X Y Z # 

Thorn In My Side Bass tabs (ver.1)

Bon Jovi Tabs
 Rating:
4/5 (4 votes)
Thorn In My Side lessons Tabs too difficult? Try these video lessons and learn fast
                -------------------------------------------------------------------------------
                             Thorn In My Side - Bon Jovi
-------------------------------------------------------------------------------

Tuning: EADG

Intro: This part isn't in the album song, I just like to play it. match it up with
the intro. I play it so its underneath the guitar sound, then when he starts
singing I play it barely there, then on the last intro verse slide down and start
playing!

G|--------------------------------------------------------------|----------------|
D|--------------------------------------------------------------|----------------|
A|-----------15~ -------------------17~ -------x3---------------|-----/17--------|
E|-12~ -----------------15~ -------------------------------------|---------------|

Verse:
G|-----------------------------------------------------------------------------|
D|-----------------------------------------------------------------------------|
A|------------33333333--------------55555555-----------------------------------| x2
E|-00000000--------------33333333----------------------------------------------|

Pre-Chorus:
G|------------------------------------------------------------------------------|
D|------------------------------------------------------------------------------|
A|----33---------5555555555555555-----------------------------------------------| x2
E|----------33------------------------------------------------------------------|

Chorus:
G|-----------------------------------------------------------------------------|
D|-----------------------------------------------------------------------------|
A|--33333333---------------5555555555555555------------------------------------|
E|--------------33333333-------------------------------------------------------|

G|-----------------------------------------------------------------------------|
D|-------------55555555--------------------------------------------------------|
A|--33333333---------------5555555555555555------------------------------------|
E|-----------------------------------------------------------------------------|

G|-----------------------------------------------------------------------------|
D|-----------------------------------------------------------------------------|
A|--33333333---------------5555555555555555------------------------------------|
E|--------------33333333-------------------------------------------------------|

Post-Chorus:
G|------------------------------------------------------------------------------|
D|------------------------------------------------------------------------------|
A|--33--------5555555555555555--------------------------------------------------|
E|-------33---------------------------------------------------------------------|

G|-----------------------------------------------------------------------------|
D|-----------------------------------------------------------------------------|
A|------------33333333--------------55555555-----------------------------------|
E|-00000000--------------33333333----------------------------------------------|

Repeat Verse:
G|-----------------------------------------------------------------------------|
D|-----------------------------------------------------------------------------|
A|------------33333333--------------55555555-----------------------------------| x4
E|-00000000--------------33333333----------------------------------------------|

Chorus:
G|-----------------------------------------------------------------------------|
D|-----------------------------------------------------------------------------|
A|--33333333---------------5555555555555555------------------------------------|
E|--------------33333333-------------------------------------------------------|

G|-----------------------------------------------------------------------------|
D|-------------55555555--------------------------------------------------------|
A|--33333333---------------5555555555555555------------------------------------|
E|-----------------------------------------------------------------------------|

G|-----------------------------------------------------------------------------|
D|-----------------------------------------------------------------------------|
A|--33333333---------------5555555555555555------------------------------------|
E|--------------33333333-------------------------------------------------------|

Post-Chorus:
G|------------------------------------------------------------------------------|
D|------------------------------------------------------------------------------|
A|--33--------5555555555555555--------------------------------------------------|
E|-------33---------------------------------------------------------------------|

Bridge: I prefer to play the verse here over and over but the chorus works
too right before they break into the guitar solo. The notes in parenthesis
are optional depending on how you want to play it, they just mix it up a
little with the solo.

G|-----------------------------------------------------------------------------|
D|-----------------------------------------------------------------------------|
A|------------33333333--------------55555555-----------------------------------| x2
E|-(00000000)-------------33333333---------------------------------------------|

G|-----------------------------------------------------------------------------|
D|-----------------------------------------------------------------------------|
A|------------33333333--------------55555555-----------------------------------|
E|-00000000--------------33333333----------------------------------------------|

G|-----------(55555555)-------------(77777777)---------------------------------|
D|(22222222)------------(55555555)---------------------------------------------|
A|------------33333333--------------55555555////////17\\\\\\\\3----------------|
E|-00000000--------------33333333----------------------------------------------|

Pre-Chorus:
G|------------------------------------------------------------------------------|
D|------------------------------------------------------------------------------|
A|----33---------5555555555555555-----------------------------------------------| x2
E|----------33------------------------------------------------------------------|

Chorus:
G|-----------------------------------------------------------------------------|
D|-----------------------------------------------------------------------------|
A|--33333333---------------5555555555555555------------------------------------|
E|--------------33333333-------------------------------------------------------|

G|-----------------------------------------------------------------------------|
D|-------------55555555--------------------------------------------------------|
A|--33333333---------------5555555555555555------------------------------------|
E|-----------------------------------------------------------------------------|

G|-----------------------------------------------------------------------------|
D|-----------------------------------------------------------------------------|
A|--33333333---------------5555555555555555------------------------------------|
E|--------------33333333-------------------------------------------------------|

Chorus Cont. You have the option of also playing the main verse here, I switch between
the 2 depending on how I think it needs to feel.
G|-----------------------------------------------------------------------------|
D|-----------------------------------------------------------------------------|
A|--33333333---------------5555555555555555------------------------------------|
E|--------------33333333-------------------------------------------------------|

G|-----------------------------------------------------------------------------|
D|-------------55555555--------------------------------------------------------|
A|--33333333---------------5555555555555555------------------------------------|
E|-----------------------------------------------------------------------------|

G|---------------------------------------------------------------------------------|
D|---------------------------------------------------------------------------------|
A|--33333333---------------5555555555555555--(Repeat till end and end on): 3~------|
E|--------------33333333-----------------------------------------------------------|
            
Submit corrections

comments powered by Disqus
↑ Back to top | Bon Jovi Bass for Thorn In My Side. Lyrics for acoustic guitar and electric guitar. Tablatures and chords are parodies/interpretations of the original songs. You may use it for private study, scholarship, research or language learning purposes only